Oops, an error
Loading. Please wait.

Sleepwalker intro tab

1,015 views 42 this week
3 commentsread comments
1 2 3 4 5
x 4
add to favorites
×
Save as Personal and add changes to this tab that will be seen only by you. Learn more ›
×
You can save this tab as Personal to edit and correct it or add notes. All changes will be seen only by you. Learn more »
launch autoscroll
font size
0
reset
how to read this tab
guitar tuner
edit
Autoscroll
slow
fast
+/-
esc
set tempo
stop
Author
Difficulty
About this tab version
The bass notes in bars 5 and 6 can be either played as shown, or on the 6th fret of the A-String. Was this info helpful? Yes No
Artist:               Illenium
Song:                 Sleepwalker
Part of the song:     Intro

[Intro]
  1                     2                     3                     4
e|---------------------|---------------------|---------------------|---------------------|
B|--------4---------4--|--------4------------|--------4---------4--|--------4------------|
G|----5---------5------|----5---------5---3--|----5---------5------|----5---------5---3--|
D|--3---3-----3---3----|--3---3-----3---3----|---------------------|---------------------|
A|---------------------|---------------------|--3---3-----3---3----|--3---3-----3---3----|
E|---------------------|---------------------|---------------------|---------------------|

  5                     6                     7                     8
e|---------------------|---------------------|---------------------|---------------------|
B|--------4---------4--|--------4---------4--|----3---4-----3---4--|----3---4-----3------|
G|----3---------3------|----3---------3------|--3---3-----3---3----|--3---3-----3---3-5--|
D|--1---1-----1---1----|--1---1-----1---1----|---------------------|---------------------|
A|---------------------|---------------------|---------------------|---------------------|
E|---------------------|---------------------|---------------------|---------------------|

            
            
Suggest correction
Creating personal tab
Creating personal tab
You can edit any tab online and save it as your Personal.

You can edit, replace or remove any tab part or add personal notes – all changes will be seen only by you.

Personal tabs can be accessed anytime from any device, even offline.
Learn more »
comments
print report bad tab
3 comments total.
0 reply
daltontattam 10 Sep 05, 2017 11:29 AM

didn't like this contribution

0 reply
daltontattam 10 Sep 05, 2017 11:29 AM

didn't like this contribution

0 reply
daltontattam 10 Sep 05, 2017 11:29 AM

ur good dude

guest
You may want to rate the tab now too:
select rating
Wanna post a correction for this tab? Suggest correction