Oops, an error
Loading. Please wait.

Danse Macabre Tab

version 1
version 1

Whole song

6,418 views 1 this week
1 commentread comment
1 2 3 4 5
accurate
x 3
add to favorites
launch autoscroll
font size
0
reset
how to read this tab
guitar tuner
Autoscroll
slow
fast
+/-
esc
set tempo
stop
Help us to improve Ultimate-Guitar.com Take our survey!
×
Danse Macabre – ill scarlett
tabbed by x.shut.me.up.x@hotmail.com & christophe5@hotmail.com



Intro 

e –----------------------------------|
B –----------------------------------|
G –-----6-------6-------6-------6----|
D –-8-8---8-7-7---7-6-6---6-5-5---5--| repeat 5x
A –----------------------------------|
E -----------------------------------|

At the 6th time

e --6--6/--|
B --6--6/--|
G --5--5/--|
D --6--6/--|
A ---------|
E ---------|

Main riff
                     |1st time   |2nd&4th time|3rd time      |
e -------------------|------8~--|----------|--------9-----|
B -------------------|--9-7-----|----------|--9-7-9b-9p7--|
G -\10-8----8-10-----|----------|---5-6----|--------------|
D -------11------8-6-|----------|----------|--------------|
A -------------------|----------|----------|--------------|
E -------------------|----------|----------|--------------|


Verse
       X2          X2
e -x-x--9---|--x-x---6---|
B -x-x—-10--|--x-x---6---|
G -x-x--10--|--x-x---6---|
D -x-x—-8---|--x-x---4---|
A ----------|------------|
E ----------|------------|
   ^ v         ^ v

Chorus
                     
       X2          X2            X2        X8
e -x-x--9---|--x-x---6---|--x-x--8--|--4----------|
B -x-x--10--|--x-x---6---|--x-x--8--|--4----------|
G -x-x--10--|--x-x---6---|--x-x--8--|--4----------|
D -x-x—-8---|--x-x---4---|--x-x--6--|--2----------|
A ----------|------------|----------|-------------|
E ----------|------------|----------|-------------|

Play main riff – verse – chorus - intro
Solo

e --------------------------------------------------------
B --------------------------------------------------------
G -\10-8h10-10-8h10-10-8h10-10-10/12-12-12-11-11-9-9-7-7--
D --------------------------------------------------------
A --------------------------------------------------------
E --------------------------------------------------------

e --------------------------------------------------------
B --------------------------------------------------------
G –7-9-9/11----/12-11-11-9-9-9-7-9-9/11-----------8-10----
D -----------8--------------------------8-8-10-11------8--
A --------------------------------------------------------
E --------------------------------------------------------

e --------------------------------------------------------
B --------------------------------------------------------
G -----810-8h10-10-8h10-10-8h10-10-12-12-12-11-11-9-9-7-7-
D -810----------------------------------------------------
A --------------------------------------------------------
E --------------------------------------------------------

e ----------------------------------------------------------
B ----------------------------------------------------------
G -7-9-9/11--/12-11-11-9-9-7-7-9-11-9-9-7-7-6-6-9-7-7-6-6-4-
D ----------8-----------------------------------------------
A ----------------------------------------------------------
E ----------------------------------------------------------

Post-solo

e -----------------|
B -----------------|
G –-6~-----3~--5~--| let ring
D ------3~---------|
A -----------------|
E -----------------|

Play chorus – intro


THE END =]


/=slide
p=pull off
h=hammer on
b=bend
~= tremolo

this is not the whole song im not sure of all the part but this is what i found 

enjoy it =]
Suggest correction new What's this?
You can suggest a correction to this tab. Community and Mods will review your correction and vote to approve or reject it.
comments
We did not receive enough feedback on this tab! Please rate:
print report bad tab
1 2 3 4 5
1 comment total.
0 reply
skater8_et 38 wrote on September 25 2014, 02:56 pm

intro and all is awesome, but the verse and chorus definitely sound a little off

guest
You may want to rate the tab now too:
select rating
Please do not post tabs as comments. Select "correction" instead!