Oops, an error
Loading. Please wait.

Ntf tab

version 1
version 1

Whole song

Interactive

12,618 views 21 this week
4 commentsread comments
1 2 3 4 5
x 4
add to favorites
×
Save as Personal and add changes to this tab that will be seen only by you. Learn more ›
×
You can save this tab as Personal to edit and correct it or add notes. All changes will be seen only by you. Learn more »
launch autoscroll
font size
0
reset
how to read this tab
guitar tuner
edit
Autoscroll
slow
fast
+/-
esc
set tempo
stop
Author
Difficulty
NTF
IllScarlett

this song is pretty hard. chords arent but strumming pattern is. doubt i have the exact
right but it sounds really really good and it sounds exact to me. i dont know the solo
yet but im working on it so just wait a little longer. i love this song and there are no 
for it so here it is. this ones for my friend justin paridiso.

Standard Tuning

~     Let Chord/note ring
/     Slide to number indicated
x     Muted note (finger over fret but not pushing down)
//    Slide to nowhere. just let go when you've held it long enough
Dist. Distortion. (if not mentioned, then its not distortion)


Intro Part 1

e|-1-----1-4-----4-3-----3-4-----4-1-----1-4-----4-3-----3-4~-|
B|---2-------4-------4-------4-------2-------4-------2-----4~-|
G|-----1-------5-------3-------5-------1-------5-------3---5~-|
D|------------------------------------------------------------|
A|------------------------------------------------------------|
E|------------------------------------------------------------|

Intro Part 2

|--1-----4-----3-----4-----1-----4----3-3-3-4~-|
|--2-----4-----4-----4-----2-----4----4-4-4-4~-|
|--1-----5-----3-----5-----1-----5----3-3-3-5~-|
|----------------------------------------------|
|----------------------------------------------|
|----------------------------------------------|
OR
|-----------------------------------------------|
|-----------------------------------------------|
|--6-----10----8-----------6-----10----8-8-8----|
|--6-----10----8-----6-----6-----10----8-8-8-6~-|
|--4-----8-----6-----6-----4-----8-----6-6-6-6~-|
|--------------------4-----------------------4~-|

Fill 1

|-------------------|
|-------------------|
|-------------------|
|----3-5-6---5-6-8--|
|--4-------6--------|
|-------------------|

Verse 1 Part A
|----------------------------------------------|
|----------------------------------------------|
|----------88-8-8-8-8/10-10-10-10-10/6-6-6/8-8-|
|--6-6-6-6-88-8-8-8-8/10-10-10-10-10/6-6-6/8-8-|
|--6-6-6-6-66-6-6-6-6/8--8--8--8--8-/4-4-4/6-6-|
|--4-4-4-4-------------------------------------|
           ^^ two quick strokes(up and down)

|----------------------------------------------|
|----------------------------------------------|
|----------88-8-8-8-8/10-10-10-10-10-6-6-6-----|
|--6-6-6-6-88-8-8-8-8/10-10-10-10-10-6-6-6-6~--|
|--6-6-6-6-66-6-6-6-6/8--8--8--8--8--4-4-4-6~--|
|--4-4-4-4---------------------------------4~--|


Fill 2

|-------------------|
|-------------------|
|-------------------|
|----3-5-6---5-6-8--|
|--4-------6--------|
|-------------------|

Verse 1 Part B
|----------------------------------------------|
|----------------------------------------------|
|----------8-8-8-8-8-10-10-10-10-10-6-6-6-8-8--|
|--6-6-6-6-8-8-8-8-8-10-10-10-10-10-6-6-6-8-8--|
|--6-6-6-6-6-6-6-6-6-8--8--8--8--8--4-4-4-6-6--|
|--4-4-4-4-------------------------------------|

|----------------------------------------------|
|----------------------------------------------|
|----------88-8-8-8-8-10-10-10-10-10-6-6-6-----|
|--6-6-6-6-88-8-8-8-8-10-10-10-10-10-6-6-6-6~--|
|--6-6-6-6-66-6-6-6-6-8--8--8--8--8--4-4-4-6~--|
|--4-4-4-4---------------------------------4~--|

Noise Build 1

|------------|
|------------|
|------------|
|--66666666--|
|--66666666--|
|--44444444--|

Chorus 1

|-------------------------------------|
|-------------------------------------|
|--6-----6-10------10-8-----8---------|
|----6--------10--------8-----6-----6-|
|------4---------8--------6-----6-----|
|---------------------------------4---|

|-------------------------------------|
|-------------------------------------|
|--6-----6-10------10-8-----8---------|
|----6--------10--------8-----6-----6-|
|------4---------8--------6-----6-----|
|---------------------------------4---|

|-------------------------------------|
|-------------------------------------|
|--6666-6--10------10-8-----8---------|
|--6666-6-----10--------8-----6-----6-|
|--4444-4--------8--------6-----6-----|
|---------------------------------4---|

|-------------------------------------|
|-------------------------------------|
|--6-----6-10------10-8-----8---------|
|----6--------10--------8-----6-----6-|
|------4---------8--------6-----6-----|
|---------------------------------4---|

Fill 3

|-------------------|
|-------------------|
|-------------------|
|----3-5-6---5-6-8--|
|--4-------6--------|
|-------------------|

Verse 2
|----------------------------------------------|
|----------------------------------------------|
|----------8-8-8-8-8-10-10-10-10-10-6-6--8-8---|
|--6-6-6-6-8-8-8-8-8-10-10-10-10-10-6-6--8-8---|
|--6-6-6-6-6-6-6-6-6-8--8--8--8--8--4-4--6-6---|
|--4-4-4-4-------------------------------------|

|----------------------------------------------|
|----------------------------------------------|
|----------88-8-8-8-8-10-10-10-10-10-6-6-6-----|
|--6-6-6-6-88-8-8-8-8-10-10-10-10-10-6-6-6-6~--|
|--6-6-6-6-66-6-6-6-6-8--8--8--8--8--4-4-4-6~--|
|--4-4-4-4---------------------------------4~--|

Noise Build 2

|------------|
|------------|
|------------|
|--66666666--|
|--66666666--|
|--44444444--|

Chorus 2

|-------------------------------------|
|-------------------------------------|
|--6-----6-10------10-8-----8---------|
|----6--------10--------8-----6-----6-|
|------4---------8--------6-----6-----|
|---------------------------------4---|

|-------------------------------------|
|-------------------------------------|
|--6-----6-10------10-8-----8---------|
|----6--------10--------8-----6-----6-|
|------4---------8--------6-----6-----|
|---------------------------------4---|

|-------------------------------------|
|-------------------------------------|
|--6666-6--10------10-8-----8---------|
|--6666-6-----10--------8-----6-----6-|
|--4444-4--------8--------6-----6-----|
|---------------------------------4---|

|-------------------------------------|
|-------------------------------------|
|--6-----6-10------10-8-----8---------|
|----6--------10--------8-----6-----6-|
|------4---------8--------6-----6-----|
|---------------------------------4---|

Pre solo

|-------------------|
|-------------------|
|-6--6--8-8-8-8-8-8-|
|-6--6--8-8-8-8-8-8-|
|-4--4--6-6-6-6-6-6-|
|-------------------|


Solo Comming Soon! just bare with me.


Chorus 3

|-------------------------------------|
|-------------------------------------|
|--6-----6-10------10-8-----8---------|
|----6--------10--------8-----6-----6-|
|------4---------8--------6-----6-----|
|---------------------------------4---|

|-------------------------------------|
|-------------------------------------|
|--6-----6-10------10-8-----8---------|
|----6--------10--------8-----6-----6-|
|------4---------8--------6-----6-----|
|---------------------------------4---|

Bridge (still singing Chorus)

|--------------------------------|
|--------------------------------|
|--xx6xx6-xx10xx10-xx8xx8--------|
|--xx6xx6-xx10xx10-xx8xx8-xx6xx6-|  Dist.
|--xx4xx4-xx8-xx8--xx6xx6-xx6xx6-|
|-------------------------xx4xx4-|

|--------------------------------|
|--------------------------------|
|--xx6xx6-xx10xx10-888888--------|
|--xx6xx6-xx10xx10-888888-666666-|  Dist.
|--xx4xx4-xx8-xx8--666666-666666-|
|-------------------------444444-|

Break Down

|--------------------------------------|
|--------------------------------------|
|-1010101010-8-66666/8-----------------|
|-x-x-x-x-x--x-xxxxx/x--66xx66xx66xx66-|   Dist.
|-8-8-8-8-8--6-44444/6--xxxxxxxxxxxxxx-|
|-----------------------44xx44xx44xx44-|

|--------------------------------------|
|--------------------------------------|
|-1010101010-8-66666/8-----------------|
|-x-x-x-x-x--x-xxxxx/x--66xx66xx66xx66-|   Dist
|-8-8-8-8-8--6-44444/6--xxxxxxxxxxxxxx-|
|-----------------------44xx44xx44xx44-|

Ending

|------------------------------------------------|
|------------------------------------------------|
|--13-13-13-13-13-13/12-13-13-13-13-13-13/15-----|
|--13-13-13-13-13-13/12-13-13-13-13-13-13/15-----|  Dist.
|--11-11-11-11-11-11/10-11-11-11-11-11-11/13-----|
|------------------------------------------------|

|------------------------------------------------|
|------------------------------------------------|
|--13-13-13-13-13-13/12-13-13-13-13-13-13-13-13--|
|--13-13-13-13-13-13/12-13-13-13-13-13-13-13-13--|   Dist.
|--11-11-11-11-11-11/10-11-11-11-11-11-11-11-11--|
|------------------------------------------------|

|------------------------------------------------|
|------------------------------------------------|
|--13-13-13-13-13-13/12-13-13-13-13-13-13/15-----|
|--13-13-13-13-13-13/12-13-13-13-13-13-13/15-----|   Dist.
|--11-11-11-11-11-11/10-11-11-11-11-11-11/13-----|
|------------------------------------------------|

|------------------------------------------------|
|------------------------------------------------|
|--13-13-13-13-13-13/12-13//---------------------|
|--13-13-13-13-13-13/12-13//---------------------|   Dist.
|--11-11-11-11-11-11/10-11//---------------------|
|------------------------------------------------|

There it is have lots of fun with it. Questions or comments or CORRECTIONS(wanted
email me shortkid17@hotmail.com. good or bad anything you say will help.And if you know what
stands for id like to know that too:P thanks alot. ejoy.

            
            
Suggest correction
Creating personal tab
Creating personal tab
You can edit any tab online and save it as your Personal.

You can edit, replace or remove any tab part or add personal notes – all changes will be seen only by you.

Personal tabs can be accessed anytime from any device, even offline.
Learn more »
comments
print report bad tab
4 comments total. Showing first comments.
0 reply
pirate-man13 130 Jul 26, 2007 08:26 PM

omg dude i know justin paradisio!!!
we're jay and silent bob buddies lmfao

0 reply
Gibson. 10 Aug 13, 2007 12:13 PM

not right at all.
download the guitar pro tab to see it done right

0 reply
blackoctober119 383 Jul 10, 2008 12:58 PM

if you stick a capo on you're first fret and use open C, Em, D and G chords (at the appropriate/corresponding times of course) it sounds better.

guest
You may want to rate the tab now too:
select rating
Wanna post a correction for this tab? Suggest correction