Oops, an error
Loading. Please wait.
74 views 1 this week
no commentswrite comment
1 2 3 4 5
3 more votes to show rating
add to favorites
launch autoscroll
font size
0
reset
how to read this tab
guitar tuner
Autoscroll
slow
fast
+/-
esc
set tempo
stop
Help us to improve Ultimate-Guitar.com Take our survey!
×
intro:AEDC

A                 E
Me estoy llevando el rio 
D                      C
debo saciar la sed de mi adivino
A                 E
estoy corriendo mucho
D                         C
un pez me grita y yo nunca lo escucho

y desaparecer es lo que me aconsejan 
huir de ti salirme de tu senda
pero tome tu piel quede imantado a eso 
como los bosques imantan el silencio

estribillo:
A
quien nos guia hacia el abismo
F
sabe que quiero, sabe que busco el abismo
A                                  F
quien nos guia hacia el abismo

el mar lo siento lejos
debo nadar hasta tus sueños 
desde la fantasia 
vos me diras lo fugaz que s la vida

y si quieren juzgarte saca afuera tu alma 
deja que el sol inserte algo de calma
quebrar lo inquebrantable y ver un mundo aparte
es lo que hace que al fin yo pueda amarte

estribillo

Solo:
e-----------------------------------------------------8----
b----------------------------------------------8s10-8---10-8-
g---9-9------7---[9]-7---7-----7s9-7---9-7-9-7--------------------
d--------7-9---9-------9---9--------------------------------

e----------8---------------10-8------------------8br---------
b---10-8------10--10(11)-8-------10-10-10-10-10---------7--9-9-7-
g--------9----------------------------------------------7--9-9-7-
d---------------------------------------------------7-9----------
a-----------------------------------------------------------------

e----------------------------------------------------
b-----------------------11---9s0---------------------------
g--5s7--5-5-------------11---9s0-------------------------------
d-----------7-9-7-----------------------------------------
a-----------------9-7-----------------------------------
Suggest correction
Give kudos to tab author, rate the tab!
1 2 3 4 5
comments
print report bad tab
guest
You may want to rate the tab now too:
select rating
Wanna post a correction for this tab? Suggest correction