Oops, an error
Loading. Please wait.
242 views 3 this week
no commentswrite comment
1 2 3 4 5
3 more votes to show rating
add to favorites
launch autoscroll
font size
0
reset
how to read this tab
guitar tuner
×
Best way to learn
"Adelante"
Autoscroll
slow
fast
+/-
esc
set tempo
stop
Intro:

| Dm - Dm | A# - C |


Dm        (C)
Adelante
A#            C                Dm  (C)
Sientate y explica lo que pasó
A#             C                   Dm        (C)
Cómo has hecho para destruir lo mejor de ti
A#           C                  Dm
Como te olvidaste en solo un instante
(C) A#      C-C
De MI

       Dm    (C)
Te conocí
A#            C                Dm     (C)
El día que rompiste con otro hombre
A#            C                Dm     (C)
La noche terminaba y trajo tu nombre
A#            C                Dm
Llevabas puestas flores de otro jardin
(C)  A#     C-C
En ti


ESTRIBILLO:

Gm                            A#
Y ahora soy un eclipse en tu confesión
Gm                        A#
Una estrella quemando tu corazón
           A#             C
Si hay desamor, ya no me ves, ya no me ves


Riff 1: [x3]  -(Sobre Base de intro)

e|------------------------------------------------
B|---13---11--10----------------------------------
G|----------------10----12^-12--10-12-------------
D|------------------------------------------------
A|------------------------------------------------
E|------------------------------------------------


Riff 2:

e|-------------------------------------------------
B|-------------------------------------------------
G|-------------------------------------------------
D|----------------------10-------------------------
A|-----10-8----------10----13--12--10--8--10/12--12-
E|--10--------10--12-------------------------------


Dm         (C)
Adelante
A#              C                   Dm     (C)
Ahora es turno de que me escuches a mi
A#               C                  Dm     (C)
Las veces que junte una a una tus partes
A#           C                 Dm
Para reconstruirte y luego cuidarte
(C)  A#     C-C
De ti


         Dm    (C)
Te desconocí
A#               C                    Dm       (C)
El día que el tsunami llegó a nuestra cama
A#               C                    Dm       (C)
Fingiste que me amabas, clavaste la daga
A#               C                   Riff 2
Armaste una sonrisa y te fuiste de aqui


Repite ESTRIBILLO

-Riff 1
-Riff 2

*Nota: Los "(C)" son los golpes a contratiempo,
cuando escuchen el tema se van a dar cuenta fácil.
Suggest correction
Give kudos to tab author, rate the tab!
1 2 3 4 5
comments
print report bad tab
guest
You may want to rate the tab now too:
select rating
Wanna post a correction for this tab? Suggest correction