Oops, an error
Loading. Please wait.

Funky Futurista Bass Tab

128 views 1 this week
no commentswrite comment
1 2 3 4 5
3 more votes to show rating
add to favorites
launch autoscroll
font size
0
reset
guitar tuner
Autoscroll
slow
fast
+/-
esc
set tempo
stop
Help us to improve Ultimate-Guitar.com Take our survey!
×
Estaba esperando a que alguien sacara la tab de este temon,
pero como pasaba el tiempo y nada,  decidi hacer el intento.
Es la primer tab que saco, Si alguno la puede mejorar les agradezco.
Saludos

El Bajo es asi

G----------------------------------------------------
D----------------------------------------------------
A-----------------------------------------------------
E----(3)---5---5------7----7-----8-----8----------   X 4


G------------------------------------------------
D------------------------------------------------
A--------5----5-------3------2------3------3-----
E------------------------------------------------   X 2


G---------------------------------------------------
D---------------------------------------------------
A---------------------------------------------------
E---(3)----5---5------7----7-----8-----8------------   X 2

La guitarra hace masomenos lo mismo que el bajo

Luego la parte de "Es la fiesta con IKV..."
Si se hace con guitarra pueden ir estos acordes:

Em     C       D       Em,        o los mismos con teclado pero con variaciones

y  Repite

El bajo es algo asi como:

G---------------------------------------------------------------------
D---------------------------------------------------------------------
A---------------------------------------------------------------------
E---(1)-----5-----5-5----3------- 3--3----0---------0--0---5-----5-5--

Y repite

La guitarra hace masomenos lo mismo que el bajo.

Espero inspire a otros para mejorarla

Chau.
Suggest correction
Give kudos to tab author, rate the tab!
1 2 3 4 5
comments
print report bad tab
guest
You may want to rate the tab now too:
select rating
Wanna post a correction for this tab? Suggest correction