Oops, an error
Loading. Please wait.

Hermoza From Heaven Tab

252 views 12 this week
no commentswrite comment
1 2 3 4 5
3 more votes to show rating
add to favorites
launch autoscroll
font size
0
reset
how to read this tab
guitar tuner
×
Best way to learn
"Hermoza From Heaven"
Autoscroll
slow
fast
+/-
esc
set tempo
stop
Aqui les dejo este temazo de los kuryaki.
Creo ke de mejor calidad ke las otras transcripciones.
Ustedes opinen...

INTRO/VERSO
|----0---0-0-------0------0------0---0-0------0---0-0-|
|----0---1-0-------0------0------0---1-0------0---1-0-|
|----0---0-0-------0------0------0---0-0------0---0-0-|
|-----------------------------------------------------|
|--3------------3-------------------------------------|
|-----------------1---1-4----4-3----------4-3---------|

CORO
|----7--6-6---5-5---4-4---3----3--2---2h4h3h1-|----1-0--|
|----4--4-4---5-5---4-4---3----3--2-----------|----0-1--|
|----6--5-5---4-4---3-3---2----2--1-----------|----0-0--|
|---------------------------------------------|-4-------|
|-5-------------------------------------------|------3--|
|---------------------------------------------|---------|

N O T A (Coro): La seccion final del coro se repite
tantas veces como en la voz se repite "Te amare".

OUTRO
|-0------0---0---0----0------0------------------0-|
|-5--4---5--------0---5--4---5---7--5-4--4h5--4-5-|
|-------------------------------------------------|
|-------------------------------------------------|
|-------------------------------------------------|
|-------------------------------------------------|

|-----0---0---0-|-----0---0--0--0-----0---|-0-0--0-----0-|
|----5---4----5-|----5---4---7--5--4--5---|---7--5--4--5-|
|---6---6-------|---6---6-----------------|--------------|
|--7---7--------|--7---7------------------|--------------|
|---------------|-------------------------|--------------|
|---------------|-------------------------|--------------|


N O T A (Outro): El outro esta dividido en secciones,
esto con la intencion de que ejecuten los arreglos en
los momentos que van. No estan del todo correcto
(!Outro¡) pero quedo lo mejor posible, solo es
cuestion de escuchar la cancion.


INTRO/vERSO
Despierta, algo paso en el cielo
que no esta distante
presiento que este umbral es nuestro
fue al besar un ngel nube
tras la luna brilla tu aura
bajo el mar el paraso gira al revEs


CORO
Pude ver la flor dando a luz
y entrar en ti y en mi
hermoza from heaven voy por ti
cruce y te amare.. te amare


INTRO/VERSO
Hacia arriba gira y ama el viento
despacio escucha al lado mo
ya no tengas miedo al mirar
ya no tengas miedo..

---> Durante la ambientancion de fondo
---> y el solo de flauta se toca el INTRO/VERSO

CORO
Pude ver la flor dando a luz
y entrar en ti y en mi
hermoza from heaven voy por ti
cruce y te amare

--> Aqui comienza a tocarse el OUTRO

hermoza from heaven
hermoza from is life


Para cualquier duda, correcion, queja,
comentario o de mas..
Escribir al correo: Sam_rivers27@
Suggest correction
Give kudos to tab author, rate the tab!
1 2 3 4 5
comments
print report bad tab
guest
You may want to rate the tab now too:
select rating
Wanna post a correction for this tab? Suggest correction