Oops, an error
Loading. Please wait.

Jaguar House Tab

167 views 1 this week
no commentswrite comment
1 2 3 4 5
3 more votes to show rating
add to favorites
launch autoscroll
font size
0
reset
how to read this tab
guitar tuner
Autoscroll
slow
fast
+/-
esc
set tempo
stop
Help us to improve Ultimate-Guitar.com Take our survey!
×
La rola lleva mucho efecto de wha wha
Así que no se desesperen si suena diferente

Introducción:
e----------------------------------------------
B----------------------------------------------
G----------------------------------------------
D-----1---3--/5--3--1--3--1----3--1------------
A--3-------------------------3------3--1-1--33-
E----------------------------------------------

otra guitarra hace al terminar la figura...x2 veces
e---------------------------
B-------------------6----4--
G-------------------7----5--
D---------------------------
A---------------------------
E---------------------------

El coro  aveces lo tocan así: 
lo pueden tocar solo con los
bajos o si lo prefieren, se escucha más completo con las
5tas respectivas de esta forma.


D--10------8-----5-----7------8-8-8---
A--10------8-----5-----7------8-8-8---
E---7------6-----3-----5------6-6-6---  ---> Bajos
  wel----come   to   the   jaguar house

Se debe tocar rápido y al compás del coro

Verso:
Cm              F   Cm         F
llaman las llamas del funk ardiente
Cm        F  Cm         Cm         F
leegado ríe, muestra los dientes
Cm           F  Cm           F
la femme cosecha danza en la tierra
Cm               F    Cm             F      Cm    Bb
lo que el cielo dicta en su gran escuela

Coro:
Cm       Bb
Welcome to the jaguar house
Cm       Bb
Welcome to the jaguar house


igual que al pricipio:

lentamente fui entrando en la casa jaguar
los que duermen ya saben
que hay que despertar
un sueño y sus sombras saben que es real
un túnel dorado nos bautizará

Intermedio: Cm  Bb (varias veces)

Coro:
Cm       Bb
Welcome to the jaguar house
Cm       Bb
Welcome to the jaguar house

felina llaga, voz del más allá
el grito de un tigre que va a explotar
sorpresa, la jaula no existe más
ya todo es fiesta en la casa jaguar

Coro:
Cm       Bb
Welcome to the jaguar house
Cm       Bb
Welcome to the jaguar house

Aquí se toca el riff del pricipio:

si el cielo está cerca serás bienvenido
a la casa jaguar.


En unplugged se acaba la canción con estas pisadas,
ustedes solo ponganle el rasgueo que es, para sacarlo hay que 
escuchar la rola muy bien y para ver cuantas veces son,
estos son los acordes finales:
     
(con sejilla los dos en el 8vo traste)

e---10---------------------8---
B---8----------------------8---
G---8----------------------8---
D---8----------------------10--
A---10---------------------10--
E---8----------------------8---
    C raro (este se        Cm
   repite varias veces)

Pisadas:

   Cm   F   Bb
e--x---x----x------
B--x---6----x------
G--x---5----x------
D--5---3----3------
A--5---x----3------
E--3---x----1------

Gracias una vez más!
Que viva ikv...culaquier 
comentario duda o aclaración o sugerenecia
escribir a: chaquito_3@
Suggest correction
Give kudos to tab author, rate the tab!
1 2 3 4 5
comments
print report bad tab
guest
You may want to rate the tab now too:
select rating
Wanna post a correction for this tab? Suggest correction