Oops, an error
Loading. Please wait.

Lo Que Nos Mata chords

604 views 3 this week
no commentswrite comment
1 2 3 4 5
3 more votes to show rating
add to favorites
×
Save as Personal and add changes to this tab that will be seen only by you. Learn more ›
×
You can save this tab as Personal to edit and correct it or add notes. All changes will be seen only by you. Learn more »
launch autoscroll
font size
0
reset
transpose
0
reset
simplify chords
display chords
guitar tuner
edit
Autoscroll
slow
fast
+/-
esc
set tempo
stop
Author
Difficulty
Strumming
There is no strumming pattern for this song yet. and get +5 IQ
Tabbed by Tobini

INTRO-RIFF:

e|------------XX-------XX-|
B|------------XX---8---XX-|
G|------------XX---7---XX-|
D|------------XX---6---XX-|  x8
A|--5-5-5/7---XX---7---XX-|
E|------0-----XX-------XX-|

XX --> muted strumming

e|------------------------|
B|--7-7-7-7---8--9~-------|
G|--7-7-7-7---8--9~-------|
D|--6-6-6-6---8--9~-------|
A|--7-7-7-7---------------|
E|------------8--9~-------|
    / \ / \

----------------------------------------------

ACORDES:

  E7/9#  E7/9  Cm7  C#m7
e|-----|-----|-----|-----|
B|--8--|--7--|--8--|--9--|
G|--7--|--7--|--8--|--9--|
D|--6--|--6--|--8--|--9--|
A|--7--|--7--|-----|-----|
E|-----|-----|--8--|--9--|

  Bm7    Em7   Em7*  Gmaj7
e|-----|-----|-----|-----|
B|--7--|--7--|--7--|--3--|
G|--7--|--7--|--7--|--4--|
D|--7--|--5--|-----|--4--|
A|-----|--7--|--7--|-----|
E|--7--|-----|-----|--3--|

  Dmaj7  F#m7 Bm7/C
e|--5--|-----|-----|
B|--7--|--2--|--7--|
G|--6--|--2--|--7--|
D|--7--|--2--|--7--|
A|--5--|-----|-----|
E|-----|--2--|--8--|

----------------------------------------------


C#m7                   Bm7
Al ver muertes en la esquina,

                    Em7*
comence a correr al mar,

Cm7                 Bm7
se que temes por tu vida,

                 Em7*
te empezaron a matar,

Cm7               Bm7
madre de las arboledas,

                    Em7*
has tratado de abrazarme.

C#m7                 Bm7
Cuando duermas en mi cama,

                  Em7    
no quiero soñar oscuridad.


Gmaj7         Dmaj7
Se lo que nos mata el desamor,

Gmaj7         Dmaj7
escapa el estallido,

Gmaj7                       Dmaj7
prueba la manzana que he guardado para vos,

Gmaj7         Dmaj7
ya se lo que nos mata.


      Gmaj7  Dmaj7
Somos aves 

      Gmaj7
de la desventura,

     Dmaj7
aves de la desventura.

      Gmaj7  Dmaj7
Somos aves 

      Gmaj7
de la desventura,

     Dmaj7
aves de la desventura.


C#m7               Bm7
Tras el alma de mi barrio,

                    Em7*
han clavado un ultimatum,

C#m7            Bm7
abanico de los dias que se rie,

         Em7*        
y nos desangra, 

C#m7              Bm7
madre de las arboledas,

                 Em7*
has tratado de tocarme,

C#m7               Bm7
marginal la vestimenta,

                    Em7
que remojas en la soledad.


Gmaj7         Dmaj7
Se lo que nos mata el desamor,

Gmaj7         Dmaj7
escapa el estallido,

Gmaj7                       Dmaj7
prueba la manzana que he guardado para vos,

Gmaj7         Dmaj7
ya se lo que nos mata.


      Gmaj7  Dmaj7
Somos aves 

      Gmaj7
de la desventura,

     Dmaj7
aves de la desventura.

      Gmaj7  Dmaj7
Somos aves 

      Gmaj7
de la desventura,

     Dmaj7
aves de la desventura.


Interlude: F#m7 - Em7* - F#m7 - Em7* 
            (Cm7)-C#m7 - Bm7/C - Bm7 - E7/9



[INTRO-RIFF]

E7/9#          E7/9
Uh! Lo que nos mata...    (until fade)

            
            
Suggest correction
Creating personal tab
Creating personal tab
You can edit any tab online and save it as your Personal.

You can edit, replace or remove any tab part or add personal notes – all changes will be seen only by you.

Personal tabs can be accessed anytime from any device, even offline.
Learn more »
Give kudos to tab author, rate the tab!
1 2 3 4 5
comments
print report bad tab
guest
You may want to rate the tab now too:
select rating
Wanna post a correction for this tab? Suggest correction