Oops, an error
Loading. Please wait.
46 views 1 this week
no commentswrite comment
1 2 3 4 5
3 more votes to show rating
add to favorites
launch autoscroll
font size
0
reset
how to read this tab
guitar tuner
×
Best way to learn
"Monta El Trueno"
Autoscroll
slow
fast
+/-
esc
set tempo
stop
Acordes:
G, A, C, Bb y D

Intro:

e|------------------------------------
B|------------------------------------
G|------------------------------------
D|-----7---5--------------------------
A|-----------7---5-------5---7--------
E|------------------5---7-------------


Vuelen... Alto /Monta... el Trueno
e|----------------------------------------------
B|----------------------------------------------
G|--------------7--9-99-7-----------------------
D|-----------------------5--7--5-7--7--9-99-7---
A|---5--7-5-7-----------------------------------
E|----------------------------------------------


Escapa del Radar!/No va a hacerte mal
e|---------------------------------------------
B|---------------------------------------------
G|------------5--7-77-7------------------------
D|-----------------------3--5-3-5--5--7-77-5---
A|---3--5-3-5----------------------------------
E|---------------------------------------------

La parte que dice: "Hay un ejército invisible", es igual,
sólo que Dante y Matías lo hacen con wah.

Lo mismo con "Y si te besa este lugar"

D D     D D   E E
Todo desapareció
E E     D D         D D         E E
Un agujero negro nos tragó a los dos
D D       E E       E E       D D
Volvimos desalmados del cielo violento
D D       E E      D D     E E
Buscando volver el tiempo atrás


G           A
A traves del Cosmos llega
D
Rompe la ventana, Clava tu manzana
   Bb      C         D
Con la luz, La Luz, La luz.


Y después del no den marcha atrás,
jueguen con los acordes que aparecen en toda la canción
Suggest correction
Give kudos to tab author, rate the tab!
1 2 3 4 5
comments
print report bad tab
guest
You may want to rate the tab now too:
select rating
Wanna post a correction for this tab? Suggest correction