Oops, an error
Loading. Please wait.

De Regreso Chords

32 views 1 this week
no commentswrite comment
1 2 3 4 5
3 more votes to show rating
add to favorites
launch autoscroll
font size
0
reset
transpose
0
reset
simplify chords
display chords
guitar tuner
Autoscroll
slow
fast
+/-
esc
set tempo
stop
Help us to improve Ultimate-Guitar.com Take our survey!
×
Intro:

----3-----2-3-----3-----2-3-----------
------3-1-----1-0---0-----------------
-0*-------------------2---------------   x 4
--------------------------------------
--------------------------------------
--------------------------------------

*NO estoy muy seguro de esta nota. con el bajo en sol suena
bien aunque es más agudo el de la canción

La primera estrofa y el intermedio se hacen con rasgado
de resto toda la cancion es igual. Traten de buscarle el
ritmo, se oye perfecto la guitarra

Estrofa:
    G   Cadd9   Bm  Cadd9       G
Hoy vuelvo mmm  cansada de huiiir
  Cadd9       Bm Cadd9         G
de la vida que se quedo aquiiii
  Cadd9     Bm  Cadd9         G
de regreso sin mas soledaaaad
    Cadd9      Bm Cadd9     D
sin mas llagas ni dolor de mas mmmmm


antes de entrar a la siguiente estrofa se oye esto:

---3----------------
-----3--------------
-------2------------
---------0*---------
--------------------
--------------------
* Tampoco estoy muy seguro de esta ultima nota pero
no veo otra opcion

Con los mismos acordes

Hoy vuelvo esperando mas
de los  pasos que se puedan dar
el camino no se acaba aun
se transforma y puedo ver tu luz.

Coro:

G          D              Em   C
He venido a dar la vida entera ahhh
G        D          Em  C
a vivir sin ninguna reserva
G            D           Em    C
a reconstruir de nuevo el sueño de sentir
G           D            Em     C
a entregar amor de estar despierta.

Intro x2

Estrofa: mismo acrodes

Hoy vuelvo y se va el temor
y las sombras callaron su voz
hoy regreso a encontrar tu luz
por que afuera se muere el azul

Coro

Intermedio: se rasga y se hacen arpegios en el C

Em           D    C
he vuelto con amor para darte
Em            D      C
ya no habra temor no.........en adelante
Em         D          C
no me fui para perderme no
Em      D        C (repique)
si no para encontrarte. eeeeeeeeeeeeeee


Coro x2

outro:

----------------------------------------------
-----3-1-3-1-3----3-1-3-1-3----3-1-3-1-3------
---0-----------0------------0------------0----
----------------------------------------------
----------------------------------------------
----------------------------------------------

Nota: en aglunas partes cambio de Cadd9 a C mayor, porque me suena mas.
en el intermedio suena más el rasgado y el arpegio con C
Si alguien saca esas dos notas que no estoy seguro me cuentan
 caf61@

suerte
beto
Suggest correction
Give kudos to tab author, rate the tab!
1 2 3 4 5
comments
print report bad tab
guest
You may want to rate the tab now too:
select rating
Wanna post a correction for this tab? Suggest correction