Oops, an error
Loading. Please wait.

It Is What It Is Tab

666 views 1 this week
2 commentsread comments
1 2 3 4 5
please rate
add to favorites
launch autoscroll
font size
0
reset
how to read this tab
guitar tuner
Autoscroll
slow
fast
+/-
esc
set tempo
stop
Help us to improve Ultimate-Guitar.com Take our survey!
×
Author
Difficulty
intermediate
-----------------------------------------------------------------------------
                             It is what it is - Ilvoz
-----------------------------------------------------------------------------
Tabbed by: Ryan Dethro McMahon
Email: ikeman1156@yahoo.com
Song link: http://www.youtube.com/watch?v=b5SFyzdNKC0
Official page: http://www.myspace.com/vozzilla
Tuning:Standard

  Just regular pentatonic scale *ALL BENDS MATCH WITH HIGH NOTE
e|---------------|----------------|--------4-----6-----6--|-7---7---7-----|
B|---------------|------------7-4-|-4-7-4--7b-7r-9b-9r-9b-|-10b-10b-10br--|
G|---------------|--4-4-4h6~~-----|-----------------------|---------------|
D|---------4-6~~~|----------------|-----------------------|---------------|
A|--4/6~~~-------|----------------|-----------------------|---------------|
E|---------------|----------------|-----------------------|---------------|

e|-11---11---11---11---11---11----------------------------------|
B|-14br-14---14br-14---14br-14----------------------------------|
G|--------------------------------------------------------------|
D|--------------------------------------------------------------|
A|--------------------------------------------------------------|
E|--------------------------------------------------------------|

e|-----------14----------16-------14----------------------14----|
B|--14-15-16----16-15-14----14-16----16-15-14-15-14-15-16-------|*continue
G|--------------------------------------------------------------|to next line
D|--------------------------------------------------------------|
A|--------------------------------------------------------------|
E|--------------------------------------------------------------|

e|----------------14---------------------------------------|
B|-16-15-14-15-16----16-15-14------------------------------|
G|---------------------------------------------------------|*PICK FAST
D|---------------------------------------------------------|ALTERNATE PICKING
A|---------------------------------------------------------|HELPS
E|---------------------------------------------------------|
 **PICK EVERY NOTE**
e|---------------------------------------------------------------|
B|-------------------------------------12-13-14-12-13-14---------|
G|-------------------11-12-13-11-12-13---------------------------|*CONTINUE
D|-11-12-13-11-12-13---------------------------------------------|
A|---------------------------------------------------------------|
E|---------------------------------------------------------------|

e|-9-10-11-9-10-11/14--12-|-12h14p12h14-----------------|
B|------------------------|-------------15-12-11--------|
G|------------------------|----------------------13-11--|
D|------------------------|-----------------------------|
A|------------------------|-----------------------------|
E|------------------------|-----------------------------|
Do this 10+xs and add this part (below) for every note here you do the tapping sequence 
Watch vid to get a better understanding
e|---------------|-------------------|---------------------------|
B|---11-12-------|-----T-------------|---------------------------|
G|-13------11-13-|-(4)-8-6-4-T-------|-9-8--9-8--11--8-----------|
D|---------------|-(4)-------8-6-4---|-9-8--9-8--11--8-----------|
A|---------------|-------------------|---------------------------|
E|---------------|-------------------|---------------------------|

*Notes This is my 2nd tab and 1st with a real challenging song.
If you have and questions please ask me, I am not finished with this and probably wont 
a few months due to my computer. school etc.
Yhis should start you off good and it may sound different because he is using some 
effects and he is using a humbucker pick-up which makes it sound 90% different

************************************

| /   slide up
| \   slide down
| h   hammer-on
| p   pull-off
| ~   vibrato
| +   harmonic
| x   Mute note
| b   Bend
| pb  Pre-bend
| br  Bend release
| pbr Pre-bend release
| brb Bend release bend

************************************
Suggest correction
Give kudos to tab author, rate the tab!
1 2 3 4 5
comments
print report bad tab
2 comments total.
0 reply
zzxx196 61 wrote on January 31 2011, 03:29 pm

Hey man thanks ive been lookin for this! very good by the bay

0 reply
Deathro 67 wrote on February 1 2011, 07:14 pm

Thanks! Its not complete though as you may have seen lol. But glad you could find it

guest
You may want to rate the tab now too:
select rating
Please do not post tabs as comments. Select "correction" instead!