Oops, an error
Loading. Please wait.

Were From Barcelona Bass Tab

805 views 1 this week
no commentswrite comment
1 2 3 4 5
2 more votes to show rating
add to favorites
launch autoscroll
font size
0
reset
guitar tuner
Autoscroll
slow
fast
+/-
esc
set tempo
stop
Help us to improve Ultimate-Guitar.com Take our survey!
×
Author
Difficulty
novice
Artist: I’m From Barcelona
Title: We’re From Barcelona

rik_verpoorten@hotmail.com


Intro

     W      W     E E E E E E E E   E  E  E  E  E  E  E E
G||------|------|-----------------|-----------------------|
D||-rest-|-rest-|-----------------|-----------------------|
A||------|------|-8-8-8-8-8-8-8-8\|-13-13-12-12-10-10-8-8-|
E||------|------|-----------------|-----------------------|

    E E E E E E E E   E E E E E E E E   E E E E E E E E   E E E E E E E E
G||-----------------|-----------------|-----------------|-----------------|
D||-----------------|-----------------|-----------------|-----------------|
A||-1-1-1-1-1-1-1-1\|-3-3-3-3-3-3-3-3\|-8-8-8-8-8-8-8-8\|-1-1-1-1-1-1-1-1-|
E||-----------------|-----------------|-----------------|-----------------|


Chorus (nananana...)

    E E E E E E E E   E E E E E E E E   E E E E E E E E   E E E E E E E E
G||-----------------|-----------------|-----------------|-----------------|
D||*----------------|-----------------|-----------------|----------------*|
A||*1-1-1-1-1-1-1-1\|-3-3-3-3-3-3-3-3\|-8-8-8-8-8-8-8-8\|-1-1-1-1-1-1-1-1*|
E||-----------------|-----------------|-----------------|-----------------|
                                                                         3x

    E E E E E E E E   E E E E E E E E   E E E E E E E E   E  E  E  E  E  E  E E
G||-----------------|-----------------|-----------------|-----------------------|
D||-----------------|-----------------|-----------------|-----------------------|
A||-1-1-1-1-1-1-1-1\|-3-3-3-3-3-3-3-3\|-8-8-8-8-8-8-8-8\|-13-13-12-12-10-10-8-8-|
E||-----------------|-----------------|-----------------|-----------------------|


Verse 1

    E E E E E E E E   E E E E E E E E   E E E E E E E E   E E E E E E E E
G||-----------------|-----------------|-----------------|-----------------|
D||-----------------|-----------------|-----------------|-----------------|
A||-1-1-1-1-1-1-1-1\|-3-3-3-3-3-3-3-3\|-8-8-8-8-8-8-8-8\|-1-1-1-1-1-1-1-1-|
E||-----------------|-----------------|-----------------|-----------------|

    E E E E E E E E   E E E E E E E E   E E E E E E E E   E  E  E  E  E  E  E E
G||-----------------|-----------------|-----------------|-----------------------|
D||-----------------|-----------------|-----------------|-----------------------|
A||-1-1-1-1-1-1-1-1\|-3-3-3-3-3-3-3-3\|-8-8-8-8-8-8-8-8\|-13-13-12-12-10-10-8-8-|
E||-----------------|-----------------|-----------------|-----------------------|

Chorus

Verse 2

      W      E  E  E  E  E  E  E E
G||--------|-----------------------|
D||*-rest-*|-----------------------|
A||*------*|-13-13-12-12-10-10-8-8-|
E||--------|-----------------------|
          7x
Chorus

Outro

    E E E E E E E E   E E E E E E E E   E E E E E E E E   E E E E E E E E
G||-----------------|-----------------|-----------------|-----------------|
D||-----------------|-----------------|-----------------|-----------------|
A||-1-1-1-1-1-1-1-1\|-3-3-3-3-3-3-3-3\|-8-8-8-8-8-8-8-8\|-1-1-1-1-1-1-1-1-|
E||-----------------|-----------------|-----------------|-----------------|

    E E E E E E E E   E E E E E E E E   E E E E E E E E   E  E  E  E  E  E  E E
G||-----------------|-----------------|-----------------|-----------------------|
D||-----------------|-----------------|-----------------|-----------------------|
A||-1-1-1-1-1-1-1-1\|-3-3-3-3-3-3-3-3\|-8-8-8-8-8-8-8-8\|-13-13-12-12-10-10-8-8-|
E||-----------------|-----------------|-----------------|-----------------------|

     W      W
G||-----|---------|
D||*----|--------*|
A||*-1--|-hold 1-*|
E||-----|---------|
                 4x
Suggest correction
Give kudos to tab author, rate the tab!
1 2 3 4 5
comments
print report bad tab
guest
You may want to rate the tab now too:
select rating
Wanna post a correction for this tab? Suggest correction