Oops, an error
Loading. Please wait.

Were From Barcelona Tab

version 1
version 1

Intro

Whole song

1,678 views 1 this week
4 commentsread comments
1 2 3 4 5
x 5
add to favorites
launch autoscroll
font size
0
reset
how to read this tab
guitar tuner
Autoscroll
slow
fast
+/-
esc
set tempo
stop
Help us to improve Ultimate-Guitar.com Take our survey!
×
Difficulty
novice
okay, I started playing guitar about 2 weeks ago (as in: I literally bought it, learned 
chords, and how to read tabs two weeks ago), so I'm not entirely sure if I'm doing this 
and this is also my first tab, so feel free to correct any mistakes, or add to the song.


E------------------------------------------------------|
B--- 6 6 6 6 6 6 6 6 6 5 5 ---------- 9 9 --- 7 -------|
G------------------------- 7 5 --- 5 ----- 10 --- 10 --|
D----------------------------- 6 7 --------------------|
A------------------------------------------------------|
E------------------------------------------------------|

as far as I'm aware this repeats itself until the part that goes "we'll aim for the 
we'll aim for your heart..." which is different, but after that all the "na na na na"'s and 
of the song uses this tab.
Suggest correction
comments
print report bad tab
4 comments total. Showing first comments.
0 reply
mrdynamite 10 Jun 09, 2007 04:06 PM

E-----666666666655--------------------------------------|
B------------------------75-------1010---8-----------------|
G---------------------------7810-------10--10-------------|
D--------------------------------------------------------------|
A--------------------------------------------------------------|
E--------------------------------------------------------------|

0 reply
mrdynamite 10 Jun 09, 2007 04:08 PM

whoops i meant

E--------------------------------------------------------------|
B-----666666666655------------101010----7-----------------------|
G------------------------75-------------------10--10---------|
D---------------------------7810----------------------------|
A--------------------------------------------------------------|
E--------------------------------------------------------------|

-2 reply
psilocyndreams2 10 Mar 28, 2008 05:11 PM

the first one was right

guest
You may want to rate the tab now too:
select rating
Wanna post a correction for this tab? Suggest correction