Oops, an error
Loading. Please wait.

June chords

269 views 3 this week
no commentswrite comment
1 2 3 4 5
3 more votes to show rating
add to favorites
×
Save as Personal and add changes to this tab that will be seen only by you. Learn more ›
×
You can save this tab as Personal to edit and correct it or add notes. All changes will be seen only by you. Learn more »
launch autoscroll
font size
0
reset
transpose
0
reset
simplify chords
display chords
guitar tuner
edit
Autoscroll
slow
fast
+/-
esc
set tempo
stop
Author
Difficulty
Strumming
There is no strumming pattern for this song yet. and get +5 IQ
These are the tabs to the intro but you could also 
just play the chords below instead. Listen to the song
to get the strumming pattern.

   C        F       Fm
e|----------------------------|
B|----------------------------|
G|------------------0~--------|
D|-2--------3-------6~--------|
A|-3--------3-------8~--------|
E|----------1-----------------|

   C        G       Am     G       F    Fm
e|--------------------------------------------|
B|--------------------------------------------|
G|-0----------------2-------------------0~----|
D|-2--------0-------2------0-------3----6~----|
A|-3--------2-------0------2-------3----8~----|
E|----------3--------------3-------1----------|

   C        G        F       Fm
e|--------------------------------|
B|---------------------------9~---|
G|-0-----------------2-------10~--|
D|-2--------0--------3-------10~--|
A|-3--------2--------3-------8~---|
E|----------3--------1------------|


[INTRO]

C                                   F                 Fm
Today felt like Christmas more than Christmas day last year
     C                               G
No lights on strings, no caroling, no specials on TV 
Am                    G     F          Fm
No disappointed dreams, no failing families 
     C            G         F     Fm
Just peace, sweet peace, in me 


[VERSE]

            C                   F                     C
What did you want? With all your self pity you didn't really
                    F                           C      
think that it would change anything, and if you didn't know then
         F                        C
it just goes to show that feeling sorry is just a waste of time. 


[OUTRO]

C Dm Dsus2 Fmaj7 x2

 C      Dm   Dsus2 Fmaj7
   This is all I want.

 C Dm Dsus2 Fmaj7
 C Dm Dsus2 Fmaj7 Fmaj7/G

This last thing is just a cool way to play the outro 
that combines the chords with the lead guitar.

   C         Dm        Fmaj7
e|---------------1-0---------0---0-------------------|
B|-----0-1---3-3-3-3---1-1-3---3---3-3-3-1-----------|
G|-0-0-0-0---2-2-2-2---2-2-2---2---2---2-------------|
D|-2-2-2-2---0-0-0-0---3-3-x---x---x---x-------------|
A|-3-3-3-3-------------3-3-3---3---3---3-------------|
E|---------------------1-1-1---1---1---1-------------|

And this is the ending

   C           Dm  Dsus2   Fmaj7                  Fmaj7/G
e|-0-0-0-0-----1-1-0-0-0---0~---0~----0-0-0-0-0-0-3-3-3-3-3-3---|
B|-1-1-1-1-----3-3-3-3-3---1~---1~----1-1-1-1-1-1-1-1-1-1-1-1---|
G|-0-0-0-0-----2-2-2-2-2---2~---2~----2-2-2-2-2-2-2-2-2-2-2-2---|
D|-2-2-2-2-----0-0-0-0-0---3~---3~----3-3-3-3-3-3-x-x-x-x-x-x---|
A|-3-3-3-3-----------------3~---3~----3-3-3-3-3-3-3-3-3-3-3-3---|
E|-------------------------1~---1~----1-1-1-1-1-1-1-1-1-1-1-1---|

Thank You!

            
            
Suggest correction
Creating personal tab
Creating personal tab
You can edit any tab online and save it as your Personal.

You can edit, replace or remove any tab part or add personal notes – all changes will be seen only by you.

Personal tabs can be accessed anytime from any device, even offline.
Learn more »
Give kudos to tab author, rate the tab!
1 2 3 4 5
comments
print report bad tab
guest
You may want to rate the tab now too:
select rating
Wanna post a correction for this tab? Suggest correction