Oops, an error
Loading. Please wait.

Chasing Ghosts chords

4,618 views 15 this week
3 commentsread comments
1 2 3 4 5
x 6
add to favorites
×
Save as Personal and add changes to this tab that will be seen only by you. Learn more ›
×
You can save this tab as Personal to edit and correct it or add notes. All changes will be seen only by you. Learn more »
launch autoscroll
font size
0
reset
transpose
0
reset
simplify chords
display chords
guitar tuner
edit
Autoscroll
slow
fast
+/-
esc
set tempo
stop
Strumming
There is no strumming pattern for this song yet. and get +5 IQ
----------------------------------------------------------------------------
                     CHASING GHOSTS - Imaginary Friend
----------------------------------------------------------------------------

Hey, this is my second tab by the amazing Imaginary Friend (Jesse Epstein).

I adore this song! Im pretty sure this is 98% correct :)

Check out his music here: facebook.com/imaginaryfriendmusic


Tuning: 1/2 Step down

Chords:
Am     x02210
Am/F   102210
G      320010 (theres a little step down thing from G  back to Am)
C      x32010
Am7    x02010
Fmaj9  xx3010 (not sure of name)
F      1xx210

Intro/Verses (repeat throughout): 
   Am          Am/F        G           Fmaj9  Am7
e|--------------------------------------------------|
B|---1-1---1-1---1-1---1-1---1-1---1-1---1-1---1-1--|
G|---2-2---2-2---2-2---2-2---0-0---0-0---0-0---0-0--|
D|-------2-----------------------------3-----2------|
A|-0-----------------------------2------------------|
E|-------------1-----1-----3------------------------|

Pre-Chorus:
   Am          G           C           G
e|--------------------------------------------------|
B|---1-1---1-1---1-1---1-1---1-1---1-1---1-1---1-1--|
G|---2-2---2-2---0-0---0-0---0-0---0-0---0-0---0-0--| x2
D|-------2-----------------------2------------------|
A|-0-----------------2-----3-----------------2------|
E|-------------3-----------------------3------------|


Chorus:
   C           G           F           G
e|--------------------------------------------------|
B|---1-1---1-1---1-1---1-1---1-1---1-1---1-1---1-1--|
G|---0-0---0-0---0-0---0-0---2-2---2-2---0-0---0-0--| x3
D|--------------------------------------------------|
A|-3-----3-----------------------------------2------|
E|-------------3-----3-----1-----1-----3------------|

For chorus 3 just pluck each chord once, end on C :)

LYRICS:

Intro: Am Am/F G Fmaj9 Am7 x2

Verse: 
Am        Am/F
 I wasn't gone
        G     Fmaj9    Am7
 It was only harder to find me
Am          Am/F
 Just play along
         G         Fmaj9           Am7
 Let the cold wind take you in his breeze


Pre-Chorus:
     Am          G
 And look out at me
          C               G
 Like the sun through the trees
       Am           G            C  G
 Or if not, just believe in your lo--ve


Chorus:
C     G           F 
 Oh, don't let me go
                  G 
 It's hard enough on your own
C   G            F
 Oh, you're not alone
                 G           C  G  F  G
 I've been out chasing ghosts


Verse:
Am                     Am/F
 Straight through the maze
             G       Fmaj9            Am7
 Where the staircase bends as you're racing
Am           Am/F 
 Look for a face 
         G     Fmaj9          Am7
 in the window pane as it's breaking


Pre-Chorus:
      Am          G
 You stop at the edge 
           C            G
 and look down off the ledge
             Am            G           C G
 And you'll see, that it's all in your head


Chorus:
C     G           F 
 Oh, don't let me go
                  G 
 It's hard enough on your own
C   G            F
 Oh, you're not alone
                 G           C  G  F  G
 I've been out chasing ghosts 


Chorus 3:
C     G           F 
 Oh, don't let me go
                  G 
 It's hard enough on your own
C   G            F
 Oh, you're not alone
                 G           C
 I've been out chasing ghosts

Suggest correction
Creating personal tab
Creating personal tab
You can edit any tab online and save it as your Personal.

You can edit, replace or remove any tab part or add personal notes – all changes will be seen only by you.

Personal tabs can be accessed anytime from any device, even offline.
Learn more »
comments
print report bad tab
3 comments total.
0 reply
oringefase 10 Apr 13, 2012 01:26 AM

Pretty sure he tunes it down another half step!

0 reply
StarsFallForMJ 1,152 Jul 07, 2012 04:16 AM

Not on the EP :)

0 reply
Hanbananfav8 10 Aug 07, 2017 12:21 PM

The band is called Imaginary Future, not Imaginary Friend.

guest
You may want to rate the tab now too:
select rating
Wanna post a correction for this tab? Suggest correction