Oops, an error
Loading. Please wait.

I Knew This Would Be Love tab

14,621 views 48 this week
no commentswrite comment
1 2 3 4 5
x 17
add to favorites
×
Save as Personal and add changes to this tab that will be seen only by you. Learn more ›
×
You can save this tab as Personal to edit and correct it or add notes. All changes will be seen only by you. Learn more »
launch autoscroll
font size
0
reset
how to read this tab
guitar tuner
edit
Autoscroll
slow
fast
+/-
esc
set tempo
stop
I Knew This Would Be Love
Kina/Imaginary Friend Version
Tabbed by Emmanuel Tse
Capo/Tuning: Capo 6 with standard tuning
Order: V1, V2, C1, V3, C2
I altered the other tab to match this version, it’s just a simpler tab.
I recommend having at least a couple listens to the video before trying, have fun! 

 [Intro]
    C/F
e|---------------------------------------------------------------------------|
B|---------------------------------------------------------------------------|
G|----0-------0-----0-------0---------0-------0------0--------0--------------|
D|--------0h2-----------0h2----2----------0h2------------0h2-----2-----------|
A|----------------------------------3---3----------3---3---------------------|
E|--1---1---------1---1------------------------------------------------------| (x2)

 [Verse]
    C/F
e|---------------------------------------------------------------------------|
B|---------------------------------------------------------------------------|
G|----0-----0-----0----0-----0-----0----0-------0-----0---------0------------|
D|------2-----2----------2-----2------------0h2-----------0h2------2---------|
A|------------------------------------3---3---------3---3--------------------|
E|--1-----1-----1----1-----1-----1-------------------------------------------| (x3)

    C/F              G                C
e|---------------------------------------------------------------------------|
B|---------------------------------------------------------------------------|
G|----0-----0-----0----0-----0-----0----0-------0-----0---------0------------|
D|------2-----2----------0-----0------------0h2-----------0h2------2---------|
A|------------------------------------3---3---------3---3--------------------|
E|--1-----1-----1----3-----3-----3-------------------------------------------|

 [Chorus]
    F                G                C
e|---------------------------------------------------------------------------|
B|---------------------------------------------------------------------------|
G|----2-----2-----2----0-----0-----0----0-------0-----0---------0------------|
D|------3-----3----------0-----0------------0h2-----------0h2------2---------|
A|------------------------------------3---3---------3---3--------------------|
E|--1-----1-----1----3-----3-----3-------------------------------------------| (x2)

    F                G                Am
e|---------------------------------------------------------------------------|
B|---------------------------------------------------------------------------|
G|----2-----2-----2----0-----0-----0----2-------2-----2---------2------------|
D|------3-----3----------0-----0------------0h2-----------0h2------2---------|
A|------------------------------------0---0---------0---0--------------------|
E|--1-----1-----1----3-----3-----3-------------------------------------------|

    C/F              G                C
e|---------------------------------------------------------------------------|
B|---------------------------------------------------------------------------|
G|----0-----0-----0----0-----0-----0----0-------0-----0---------0------------|
D|------2-----2----------0-----0------------0h2-----------0h2------2---------|
A|------------------------------------3---3---------3---3--------------------|
E|--1-----1-----1----3-----3-----3-------------------------------------------| (x2)

[Verse 1]
Funny how we met on the telephone
You and I on the edge of the unknown
Oh, in only a moment's time
I knew my heart was yours and yours was mine

[Verse 2]
When I saw you waiting at your place
Something felt familiar in your face
Oh, you smiled as if to say
I knew my heart was yours from the first day

[Chorus 1]
We were right
We stood through it all
Holding tight
Whenever we fall
What we found is second to none
I knew, I knew, I knew this would be love
I knew, I knew, I knew this would be love

[Verse 3]
There were days when I thought I'd lost you
I read the letter aloud, what could I do?
Now, we're right back where we belong
Don't second guess your heart, it's never wrong

[Chorus 2]
We were right
We stood through it all
Holding tight
Whenever we fall
What we found is second to none
I knew, I knew, I knew this would be love
I knew, I knew, I knew this would be love
I knew, I knew, I knew this would be love
I knew, I knew, I knew this would be love


************************************

| x  Dead note
| h  Hammer-on
| p  Pull-off
| /  Slide up

************************************

            
            
Suggest correction
Creating personal tab
Creating personal tab
You can edit any tab online and save it as your Personal.

You can edit, replace or remove any tab part or add personal notes – all changes will be seen only by you.

Personal tabs can be accessed anytime from any device, even offline.
Learn more »
comments
print report bad tab
guest
You may want to rate the tab now too:
select rating
Wanna post a correction for this tab? Suggest correction