Oops, an error
Loading. Please wait.

Well Be Okay tab

415 views 3 this week
2 commentsread comments
1 2 3 4 5
3 more votes to show rating
add to favorites
×
Save as Personal and add changes to this tab that will be seen only by you. Learn more ›
×
You can save this tab as Personal to edit and correct it or add notes. All changes will be seen only by you. Learn more »
launch autoscroll
font size
0
reset
how to read this tab
guitar tuner
edit
Autoscroll
slow
fast
+/-
esc
set tempo
stop
I wanted to tab out this song as well. I saw Imaginary Friend music live back at
Vancouver in May and have to say he is amazing to hear live. Hands down one of my best live
experiences, so here is a tab for We'll Be Okay.

The song is played in Standard D Tuning.

D (e)
A (B)
F (D)
C (G)
G (A)
D (E)

/  = slide
d = down stroke
u = up stroke
* = don't strum
^ = emphasize the high D string on the upstroke
~ = let the strings ring


Listen to the song for the strumming/rhythm (Basically down, up, down up, etc.) Jesse
plays it by plucking the G and C strings with his thumb and then strumming, I found it
easier to use my middle/index fingers and kind of flick the strings for the strum after. 
Whatever floats your boat. But this sounds correct either way. I know he throws in 
perhaps a
few extra strums (not just the two, but this still sounds pretty good with the two)


You can view the video here: http://youtu.be/PZRKE8L9TO4

INTRO:

         d    u      d    u         d    u      d  u     *       d  u       d  u

D|-------10--10------10--10--------10--10------10--10---/5-------5--5-------5--5----|
A|--------8---8-------8---8---------8---9-------8---9---/3-------3--3-------3--3----|
F|--------0---0-------0---0---------0---0-------0---0---/0-------0--0-------0--0----|
C|--------9---9---9---9---9---------9---9---9---9---9---/4-------4--4---4---4--4----|
G|--10---10--10------10--10---10---10--10------10--10---/5---5---5--5-------5--5----|
D|--------x---x-------x---x---------x---x-------x---x---/x-------x--x-------x--x----|


                            *                                                *

D|-------5--5-------5--5---/3-------3--3-------3--3-------3--3-------3--3---/10-----|
A|-------3--3-------3--3---/1-------1--1-------1--1-------1--1-------1--1---/8------|
F|-------0--0-------0--0---/0-------0--0-------0--0-------0--0-------0--0---/0------|
C|-------4--4---4---4--4---/2-------2--2---2---2--2-------2--2---2---2--2---/9------|
G|---5---5--5-------5--5---/3---3---3--3-------3--3---3---3--3-------3--3---/10-----|
D|-------x--x-------x--x---/x-------x--x-------x--x-------x--x-------x--x---/x------|


          ^    ^       ^   ^         ^   ^         ^   ^

D|--------10---10------10--10--------10--10--------10--10---||
A|--------8----8-------8---8---------8---9---------8---9----||
F|--------0----0-------0---0---------0---0---------0---0----||
C|--------9----9---9---9---9---------9---9----9----9---9----||
G|--10---10---10------10--10---10---10--10--------10--10----||
D|--------x----x-------x---x---------x---x---------x---x----||

VERSE 1:

(If you ever wonder..)


D|-------10--10------10--10--------10--10------10--10---/5-------5--5-------5--5----|
A|--------8---8-------8---8---------8---9-------8---9---/3-------3--3-------3--3----|
F|--------0---0-------0---0---------0---0-------0---0---/0-------0--0-------0--0----|
C|--------9---9---9---9---9---------9---9---9---9---9---/4-------4--4---4---4--4----|
G|--10---10--10------10--10---10---10--10------10--10---/5---5---5--5-------5--5----|
D|--------x---x-------x---x---------x---x-------x---x---/x-------x--x-------x--x----|


|-------5--5-------5--5---/3-------3--3-------3--3-------3--3-------3--3---/10-----|
|-------3--3-------3--3---/1-------1--1-------1--1-------1--1-------1--1---/8------|
|-------0--0-------0--0---/0-------0--0-------0--0-------0--0-------0--0---/0------|
|-------4--4---4---4--4---/2-------2--2---2---2--2-------2--2---2---2--2---/9------|
|---5---5--5-------5--5---/3---3---3--3-------3--3---3---3--3-------3--3---/10-----|
|-------x--x-------x--x---/x-------x--x-------x--x-------x--x-------x--x---/x------|


          ^    ^       ^   ^         ^   ^         ^   ^

|--------10---10------10--10--------10--10--------10--10---||
|--------8----8-------8---8---------8---9---------8---9----||
|--------0----0-------0---0---------0---0---------0---0----||
|--------9----9---9---9---9---------9---9----9----9---9----||      x2
|--10---10---10------10--10---10---10--10--------10--10----||
|--------x----x-------x---x---------x---x---------x---x----||


CHORUS:

(You're amazing...)

D|-------3--2-------3--3-------3--3-------3--3---/5-------5--5-------5--5-------5--5--|
A|-------1--1-------1--1-------1--1-------1--1---/3-------3--3-------3--3-------3--3--|
F|-------0--0-------0--0-------0--0-------0--0---/0-------0--0-------0--0-------0--0--|
C|-------2--2---2---2--2-------2--2---2---2--2---/4-------4--4---4---4--4-------4--4--|
G|---3---3--3-------3--3---3---3--3-------3--3---/5---5---5--5-------5--5---5---5--5--|
D|-------x--x-------x--x-------x--x-------x--x---/x-------x--x-------x--x-------x--x--|

|------5--5---/3---||
|------3--3---/1---||
|------0--0---/0---||   x3
|------4--4---/2---||
|--4---5--5---/3---||
|------x--x---/x---||

(We'll be okay...)


D|-------3--2-------3--3-------3--3-------3--3---/10--------10--10------10--10--------|
A|-------1--1-------1--1-------1--1-------1--1---/8----------8---8-------8---8--------|
F|-------0--0-------0--0-------0--0-------0--0---/0----------0---0-------0---0--------|
C|-------2--2---2---2--2-------2--2---2---2--2---/9----------9---9---9---9---9--------|
G|---3---3--3-------3--3---3---3--3-------3--3---/10---10---10--10------10--10--------|
D|-------x--x-------x--x-------x--x-------x--x---/x----------x---x-------x---x--------|

|--------10--10-------10--10----/3--||
|---------9---8--------8---8----/1--||
|---------0---0--------0---0----/0--||
|---------9---9---9----9---9----/2--||     x2
|---10---10--10-------10--10----/3--||
|---------x---x--------x---x----/x--||

VERSE 2:

(It's like we are always moving...)

D|-------10--10------10--10--------10--10------10--10---/5-------5--5-------5--5----|
A|--------8---8-------8---8---------8---9-------8---9---/3-------3--3-------3--3----|
F|--------0---0-------0---0---------0---0-------0---0---/0-------0--0-------0--0----|
C|--------9---9---9---9---9---------9---9---9---9---9---/4-------4--4---4---4--4----|
G|--10---10--10------10--10---10---10--10------10--10---/5---5---5--5-------5--5----|
D|--------x---x-------x---x---------x---x-------x---x---/x-------x--x-------x--x----|


|-------5--5-------5--5---/3-------3--3-------3--3-------3--3-------3--3---/10-----|
|-------3--3-------3--3---/1-------1--1-------1--1-------1--1-------1--1---/8------|
|-------0--0-------0--0---/0-------0--0-------0--0-------0--0-------0--0---/0------|
|-------4--4---4---4--4---/2-------2--2---2---2--2-------2--2---2---2--2---/9------|
|---5---5--5-------5--5---/3---3---3--3-------3--3---3---3--3-------3--3---/10-----|
|-------x--x-------x--x---/x-------x--x-------x--x-------x--x-------x--x---/x------|


          ^    ^       ^   ^         ^   ^         ^   ^

|--------10---10------10--10--------10--10--------10--10---||
|--------8----8-------8---8---------8---9---------8---9----||
|--------0----0-------0---0---------0---0---------0---0----||
|--------9----9---9---9---9---------9---9----9----9---9----||      x2
|--10---10---10------10--10---10---10--10--------10--10----||
|--------x----x-------x---x---------x---x---------x---x----||

CHORUS:

(You're amazing...)

D|-------3--2-------3--3-------3--3-------3--3---/5-------5--5-------5--5-------5--5--|
A|-------1--1-------1--1-------1--1-------1--1---/3-------3--3-------3--3-------3--3--|
F|-------0--0-------0--0-------0--0-------0--0---/0-------0--0-------0--0-------0--0--|
C|-------2--2---2---2--2-------2--2---2---2--2---/4-------4--4---4---4--4-------4--4--|
G|---3---3--3-------3--3---3---3--3-------3--3---/5---5---5--5-------5--5---5---5--5--|
D|-------x--x-------x--x-------x--x-------x--x---/x-------x--x-------x--x-------x--x--|

|-------5--5---/3---||
|-------3--3---/1---||
|-------0--0---/0---||   x3
|---4---4--4---/2---||
|-------5--5---/3---||
|-------x--x---/x---||

(Lose our way...)


D|-------3--2-------3--3-------3--3-------3--3---/10--------10--10------10--10--------|
A|-------1--1-------1--1-------1--1-------1--1---/8----------8---8-------8---8--------|
F|-------0--0-------0--0-------0--0-------0--0---/0----------0---0-------0---0--------|
C|-------2--2---2---2--2-------2--2---2---2--2---/9----------9---9---9---9---9--------|
G|---3---3--3-------3--3---3---3--3-------3--3---/10---10---10--10------10--10--------|
D|-------x--x-------x--x-------x--x-------x--x---/x----------x---x-------x---x--------|

|--------10--10-------10--10----/3--||
|---------9---8--------8---8----/1--||
|---------0---0--------0---0----/0--||
|---------9---9---9----9---9----/2--||     x2
|---10---10--10-------10--10----/3--||
|---------x---x--------x---x----/x--||

VERSE 3/BRIDGE?:

(You're all that I want...)

D|-------5--5-------5--5---/3-------3--3-------3--3---/10-------10--10-------10--10---|
A|-------3--3-------3--3---/1-------1--1-------1--1---/8---------8---8--------8---8---|
F|-------0--0-------0--0---/0-------0--0-------0--0---/0---------0---0--------0---0---|
C|-------4--4---4---4--4---/2-------2--2---2---2--2---/9---------9---9---9----9---9---|
G|---5---5--5-------5--5---/3---3---3--3-------3--3---/10---10--10--10-------10--10---|
D|-------x--x-------x--x---/x-------x--x-------x--x---/x---------x---x--------x---x---|

|--------10---10------10--10---||
|--------8----8-------8---8----||
|--------0----0-------0---0----||
|--------9----9---9---9---9----||      [x2]
|--10---10---10------10--10----||
|--------x----x-------x---x----||

OUTRO:

(You're amazing...)

D|-------3~--------3-3-3--/5-------5~-------5-5-5---/3-------3--3-------3--3---------|
A|-------1~--------1-1-1--/3-------3~-------3-3-3---/1-------1--1-------1--1---------|
F|-------0~--------0-0-0--/0-------0~-------0-0-0---/0-------0--0-------0--0---------|
C|-------2~--------2-2-2--/4-------4~-------4-4-4---/2-------2--2---2---2--2---------|
G|---3---3~--------3-3-3--/5---5---5~-------5-5-5---/3---3---3--3-------3--3---------|
D|-------x~--------x-x-x--/x-------x~-------x-x-x---/x-------x--x-------x--x---------|

|-------3--3-------3--3---/5-------5--5-------5--5-------5--5-------5--5----/3-------|
|-------1--1-------1--1---/3-------3--3-------3--3-------3--3-------3--3----/1-------|
|-------0--0-------0--0---/0-------0--0-------0--0-------0--0-------0--0----/0-------|
|-------2--2---2---2--2---/4-------4--4---4---4--4-------4--4---4---4--4----/2-------|
|---3---3--3-------3--3---/5---5---5--5-------5--5---5---5--5-------5--5----/3-------|
|-------x--x-------x--x---/x-------x--x-------x--x-------x--x-------x--x----/x-------|

|-------3--2-------3--3-------3--3-------3--3---/5-------5--5-------5--5-------5--5--|
|-------1--1-------1--1-------1--1-------1--1---/3-------3--3-------3--3-------3--3--|
|-------0--0-------0--0-------0--0-------0--0---/0-------0--0-------0--0-------0--0--|
|-------2--2---2---2--2-------2--2---2---2--2---/4-------4--4---4---4--4-------4--4--|
|---3---3--3-------3--3---3---3--3-------3--3---/5---5---5--5-------5--5---5---5--5--|
|-------x--x-------x--x-------x--x-------x--x---/x-------x--x-------x--x-------x--x--|

|-------5--5---/3---|
|-------3--3---/1---|
|-------0--0---/0---|
|---4---4--4---/2---|
|-------5--5---/3---|
|-------x--x---/x---|

D||-------3--2-------3--3-------3--3-------3--3---/10--------10--10------10--10--------|
A||-------1--1-------1--1-------1--1-------1--1---/8----------8---8-------8---8--------|
F||-------0--0-------0--0-------0--0-------0--0---/0----------0---0-------0---0--------|
C||-------2--2---2---2--2-------2--2---2---2--2---/9----------9---9---9---9---9--------|
G||---3---3--3-------3--3---3---3--3-------3--3---/10---10---10--10------10--10--------|
D||-------x--x-------x--x-------x--x-------x--x---/x----------x---x-------x---x--------|

|--------10--10-------10--10----/3--||
|---------9---8--------8---8----/1--||
|---------0---0--------0---0----/0--||
|---------9---9---9----9---9----/2--||     [x2]
|---10---10--10-------10--10----/3--||
|---------x---x--------x---x----/x--||

D||-------5--5-------5--5---/3-------3--3-------3--3---/10-------10--10-------10--10--|
A||-------3--3-------3--3---/1-------1--1-------1--1---/8---------8---8--------8---8--|
F||-------0--0-------0--0---/0-------0--0-------0--0---/0---------0---0--------0---0--|
C||-------4--4---4---4--4---/2-------2--2---2---2--2---/9---------9---9---9----9---9--|
G||---5---5--5-------5--5---/3---3---3--3-------3--3---/10---10--10--10-------10--10--|
D||-------x--x-------x--x---/x-------x--x-------x--x---/x---------x---x--------x---x--|

|--------10---10------10--10---||---10----||
|--------8----8-------8---8----||----8----||
|--------0----0-------0---0----||----0----||   [x2]
|--------9----9---9---9---9----||----9----||
|--10---10---10------10--10----||---10----||
|--------x----x-------x---x----||----x----||


*Note here that in the end on the second time around it is cut to only TWO bars and end
with a strum.


LYRICS:

VERSE 1:

If you ever wonder
If you're always in my head
I assure you it's true
You don't have to worry
Even when you're gone
I still spend every day with you

CHORUS:

You're amazing
And you have me
Doesn't matter what
Ever comes to be
Even if we
Somehow lose our way
We'll be okay
We'll be okay

VERSE 2:

It's like we're always moving
Why is it so hard to find some
Time to catch our breath
Someday we will slow down
Long enough to watch
The sunrise from our own bed

CHORUS

BRIDGE:

You're all that I want
You're all I need

OUTRO/CHORUS:

You're amazing
And you have me
Doesn't matter what
Ever comes to be
Even if we
Somehow lose our way
We'll be okay
We'll be okay

            
            
Suggest correction
Creating personal tab
Creating personal tab
You can edit any tab online and save it as your Personal.

You can edit, replace or remove any tab part or add personal notes – all changes will be seen only by you.

Personal tabs can be accessed anytime from any device, even offline.
Learn more »
Give kudos to tab author, rate the tab!
1 2 3 4 5
comments
print report bad tab
2 comments total.
0 reply
StarsFallForMJ 1,152 Oct 07, 2012 10:04 AM

this is for the youtube version right? not the EP version? thats in standard tuning :) but really great otherwise!

0 reply
aphilly89 77 Jul 07, 2013 10:03 AM

Ya this is the YouTube version! It's in a drop D tuningh

guest
You may want to rate the tab now too:
select rating
Wanna post a correction for this tab? Suggest correction