Oops, an error
Loading. Please wait.

Wherever You Go tab

version 2
version 2

Whole song

1,229 views 1 this week
2 commentsread comments
1 2 3 4 5
2 more votes to show rating
add to favorites
×
Save as Personal and add changes to this tab that will be seen only by you. Learn more ›
×
You can save this tab as Personal to edit and correct it or add notes. All changes will be seen only by you. Learn more »
launch autoscroll
font size
0
reset
how to read this tab
guitar tuner
edit
Autoscroll
slow
fast
+/-
esc
set tempo
stop
The song is played in Standard D tuning:

D (e)
A (B)
F (G)
C (D)
G (A)
D (E)

h  = hammer on
p  = pull of
/  = slide
() = don't pick, just slide

This is my first tab so bare with me, but I think this sounds right in my opinion.

Listen to the song for the timing of the singing and picking:

Imaginary Friend Music:  http://youtu.be/yWONPRDSsKM

*For the ending of the chorus the picking of the G string is still in the same timing, I 
just condensed it so it would fit on the page horizontally.

Enjoy! Please let me know how it is, and any comments are appreciated.


INTRO:

D|----------3----2----------------------------------------------------------------------||
A|----0---------------0-3---------1p0------------------------------------0--------------||
F|---------------------------0h2-------2p0----------4-----2-----0---0---------0----0----||
C|---------------------------------------------2----------------------------------------||
G|---------------------------------------------------------------3----3----3----3-------||
D|--3----3----3----3----3----3----3----3----0-----0----0----0---------------------------||

D|----------3----2----------------------------------------------------------------------||
A|----0---------------0-3---------1p0---------------------------------------------------||
F|---------------------------0h2-------2p0---------4----2-----0-------------------------||
C|--------------------------------------------2-----------------------------------------||
G|---------------------------------------------------------------3----3----3----3-------||
D|--3----3----3----3----3----3----3----3----0----0----0----0----------------------------||

VERSE 1:

D|------------------------------------------------------------------------------||
A|--------3-------3-------3---------------3-------3-------3---------------------||
F|----0-------0-------0-------0---0---0-------0-------0-------0----0------------||
C|------------------------------------------------------------------------------||   x2
G|----------------------------------3---3---3---3---3---3---3---3---------------||
D|--3---3---3---3---3---3---3---3-----------------------------------------------||

    You stare, out through the window where it's still coudy
    I'm there, but I am never enough

D|------------------------------------------------------------------------------||
A|-------0-------0-----------0-------0-----------0-------0-------0--------0-----||
F|---0-------0-----------0-------0-----------0-------0-------0-------0----------||
C|------------------------------------------------------------------------------||   x2
G|-2---2---2---2---(2)/3---3---3---3---(3)/5---5---5---5---5---5---5---5-----/2-||
D|------------------------------------------------------------------------------||

   You waste all of your winter waiting for sun, waiting for sun [x2]


CHORUS:

D|----------3----2----------------------------------------------------------------------||
A|----0---------------0-3---------1p0------------------------------------0--------------||
F|---------------------------0h2-------2p0----------4-----2-----0---0---------0----0----||
C|---------------------------------------------2----------------------------------------||
G|---------------------------------------------------------------3----3----3----3-------||
D|--3----3----3----3----3----3----3----3----0-----0----0----0---------------------------||

    You can't fight the snow, it is always going to fall wherever you go

D|----------3----2--------------------------------------------------------------------------||
A|----0---------------0-3---------1p0------------------------------------------------0------||
F|---------------------------0h2-------2p0---------4----2-----0--------------------------0--||
C|--------------------------------------------2---------------------------------------------||
G|---------------------------------------------------------------3--3--3--3--3--3--3---3----||
D|--3----3----3----3----3----3----3----3----0----0----0----0--------------------------------||


   You can't fight the snow, It is always going to fall wherever you go


VERSE 2:

D|----------------------------------------------------------------------------||
A|--------3-------3-------3-------3-------3-------3-------3-------------------||
F|----0-------0-------0-------0-------0-------0-------0-------0----0----------||
C|----------------------------------------------------------------------------||   x2
G|----------------------------------3---3---3---3---3---3---3---3-------------||
D|--3---3---3---3---3---3---3---3---------------------------------------------||

   Come home, I never wanted you to say sorry
   You know,  I've always given you time


D|----------------------------------------------------------------------------||
A|-------0-------0-----------0-------0-----------0-------0-------0-------0----||
F|---0-------0-----------0-------0-----------0-------0-------0-------0--------||
C|----------------------------------------------------------------------------||   x2
G|-2---2---2---2---(2)/3---3---3---3---(3)/5---5---5---5---5---5---5---5------||
D|----------------------------------------------------------------------------||

   You waste all of your winter waiting for sun, waiting for sun [x2]

CHORUS:

D|----------3----2----------------------------------------------------------------------||
A|----0---------------0-3---------1p0------------------------------------0--------------||
F|---------------------------0h2-------2p0----------4-----2-----0---0---------0----0----||
C|---------------------------------------------2----------------------------------------||
G|---------------------------------------------------------------3----3----3----3-------||
D|--3----3----3----3----3----3----3----3----0-----0----0----0---------------------------||

    You can't fight the snow, It is always going to fall Wherever you go

D|----------3----2--------------------------------------------------------------------------||
A|----0---------------0-3---------1p0------------------------------------------------0------||
F|---------------------------0h2-------2p0---------4----2-----0--------------------------0--||
C|--------------------------------------------2---------------------------------------------||
G|---------------------------------------------------------------3--3--3--3--3--3--3---3----||
D|--3----3----3----3----3----3----3----3----0----0----0----0--------------------------------||

    You can't fight the snow, It is always going to fall Wherever you go

OUTRO:

D|----------3----2----------------------------------------------------------------------||
A|----0---------------0-3---------1p0------------------------------------0--------------||
F|---------------------------0h2-------2p0----------4-----2-----0---0---------0----0----||
C|---------------------------------------------2----------------------------------------||
G|---------------------------------------------------------------3----3----3----3-------||
D|--3----3----3----3----3----3----3----3----0-----0----0----0---------------------------||

    You can't fight the snow

D|----------3----2----------------------------------------------------------------------||
A|----0---------------0-3---------1p0---------------------------------------------------||
F|---------------------------0h2-------2p0---------4----2-----0-------------------------||
C|--------------------------------------------2-----------------------------------------||
G|---------------------------------------------------------------3--3--3--3-------------||
D|--3----3----3----3----3----3----3----3----0----0----0----0----------------------------||

    You can't fight the snow

D|----------3----2----------------------------------------------------------------------||
A|----0---------------0-3---------1p0------------------------------------0--------------||
F|---------------------------0h2-------2p0----------4-----2-----0---0---------0----0----||
C|---------------------------------------------2----------------------------------------||
G|---------------------------------------------------------------3----3----3----3-------||
D|--3----3----3----3----3----3----3----3----0-----0----0----0---------------------------||

    You can't fight the snow

D|----------3----2----------------------------------------------------------------------||
A|----0---------------0-3---------1p0---------------------------------------------------||
F|---------------------------0h2-------2p0---------4----2-----0-------------------------||
C|--------------------------------------------2-----------------------------------------||
G|---------------------------------------------------------------3----------------------||
D|--3----3----3----3----3----3----3----3----0----0----0----0----------------------------||

    You can't fight the snow




VERSE 1:

You stare
Out through the window
Where it's still cloudy
I'm there
But I am never enough

You waste all of your winter waiting for sun, waiting for sun [x2]

CHORUS:

You can't fight the snow
It is always going to fall     [x2]
Wherever you go

VERSE 2

Come home
I never wanted you to say sorry
You know
I've always given you time

You waste all of your winter waiting for sun, waiting for sun [x2]

CHORUS

You can't fight the snow
It is always going to fall
Wherever you go

 © Imaginary Friend Music

            
            
Suggest correction
Creating personal tab
Creating personal tab
You can edit any tab online and save it as your Personal.

You can edit, replace or remove any tab part or add personal notes – all changes will be seen only by you.

Personal tabs can be accessed anytime from any device, even offline.
Learn more »
Give kudos to tab author, rate the tab!
1 2 3 4 5
comments
print report bad tab
2 comments total.
0 reply
Circus50 10 Jul 02, 2015 04:22 AM

D (e)
A (B)
F (D) G
C (G) D
G (A)
D (E)
little mistake.

guest
You may want to rate the tab now too:
select rating
Wanna post a correction for this tab? Suggest correction