Oops, an error
Loading. Please wait.

America Tab

4,129 views 3 this week
3 commentsread comments
1 2 3 4 5
x 4
add to favorites
×
Save as Personal and add changes to this tab that will be seen only by you. Learn more ›
×
You can save this tab as Personal to edit and correct it or add notes. All changes will be seen only by you. Learn more »
save as personal
new!
launch autoscroll
font size
0
reset
how to read this tab
guitar tuner
Autoscroll
slow
fast
+/-
esc
set tempo
stop
Author
Difficulty
Tuning
intermediate
E A D G B E
INTRO

SYNTH
(prob has delay)
E|-------------------|
B|----------------13-|
G|-------------------|
D|-10101010101010----|
A|-------------------|
E|-------------------|

INTRO (part 2 and Verse)

Electric 1*
E|-------------------------------|
B|-------------------------------|
G|-------------------------14-14-|
D|-17-14-17-14-17-14-17-14-------|
A|-------------------------------|
E|-------------------------------|

Electric 2
E|----------------------|
B|----------------------|
G|----------------------|
D|----------------------|
A|----------------------|
E|-12-13-8-12-13-8-12-8-|

VERSE (part 2)

Electric 3
(pick gently while putting light pressure to make a ticking noise)
E|----|
B|-14-|
G|----|
D|----|
A|----|
E|----|

Electric 1
(hold each one)
E|--------|
B|-12--13-|
G|--------|
D|--------|
A|--------|
E|--------|

CHORUS

Electric 1
   (pick)
E|-8--5-12-|
B|-10-6-13-|
G|-9--5-12-|
D|---------|
A|---------|
E|---------|

Electric 2
  (strum)
E|-8--5-12-|
B|-10-6-13-|
G|-9--5-12-|
D|---------|
A|---------|
E|---------|

Zylophone (sort of)
 (optional)
E|--------------------------------------------|
B|---------------10-12-13-12-10---------------|
G|-------9-10-12----------------12-10-9-------|
D|-10-12--------------------------------12-10-|
A|--------------------------------------------|
E|--------------------------------------------|

Verse 3 (same as up top but add riff marked *)

Verse 4 (same but add this)

Electric 3
  (picking with delay)
E|----------------------|
B|----------------------|
G|-12-11-9--12-12-11-12-|
D|-12-12-12-12-12-12-12-|
A|----------------------|
E|----------------------|


Chorus

Solo

Electric 1
E|------------------------------------|
B|------------------------------------|
G|-9h12121212121212121212/14----------|
D|---------------------------10h12/14-| x2
A|------------------------------------|
E|------------------------------------|

|--------------------------|
|-------13-13--------------|
|-12/14--------14-12-------|
|--------------------12-10-| x2
|--------------------------|
|--------------------------|

|--------------------------------|
|--------------------------------|
|-------------12b----------------|
|-12r10h12/14-12b-14-12-10----10-|
|--------------------------12----|
|--------------------------------|

|-------------------------------------------------------------------|
|--------------------------------18--17--18--17--18--20--17--19--20-|
|------------------------------17--17--17--17--17--17--17--17--17---|
|---15--14--12--10--15--14--12--------------------------------------|
|-12--12--12--12--12--12--12----------------------------------------|
|-------------------------------------------------------------------|

P.S. solo might be off posting corrections would really help me out :)
Suggest correction
comments
print report bad tab
3 comments total.
0 reply
larsonscottaver 10 Nov 25, 2015 11:51 AM

What key is this in?

0 reply
tyranidalex95 10 Jun 25, 2017 02:37 PM, edited at 06:38 pm

ive only been messing around with the solo, but i think the last bit is incorrect...On the B string when you're playing:(18--17--18--17--18--20--17--19--20), instead i think it should go: (18--17--18--17--18--20--22--24--*20*on the high E*)

guest
You may want to rate the tab now too:
select rating
Wanna post a correction for this tab? Suggest correction