Oops, an error
Loading. Please wait.

Amsterdam Tab

version 1
version 1

Intro

Interactive

6,032 views 3 this week
1 commentread comment
1 2 3 4 5
accurate
x 6
add to favorites
launch autoscroll
font size
0
reset
how to read this tab
guitar tuner
Tab Pro tools
  • play this tab
  • loop segment
  • change instrument
  • show fretboard
  • metronome
Autoscroll
slow
fast
+/-
esc
set tempo
stop
Contributor
I recently discovered this song and i wanted to learn it, I shortly realized there 
wasn't a tab for this song and thought I ought to write one.
This is my first tab and is inevitably not going to be note for note perfect
considering I am only 14 years old. This isn't finished yet and I will release chords as 
soon as possible. Enjoy!


Intro:part 1

E --0-12--11--7--9--------7-------------0-12--11--7--9--------7--------|
B ------------------9--9-----9--------------------------9--9-----9-----|
G ---------------------------------------------------------------------|
D ---------------------------------------------------------------------|
A ---------------------------------------------------------------------|
E ---------------------------------------------------------------------|

*Wood Blocks/Clapping*

Intro:part 2 Repeat x2

E ---------7--7--14--11-11-11-----------7--7--11--7-7-7----------------|
B ---9--9-------------------------9--9---------------------------------|
G ---------------------------------------------------------------------|
D ---------------------------------------------------------------------|
A ---------------------------------------------------------------------|
E ---------------------------------------------------------------------|

E --------7--7--11--7-7-7---------------7--7--11--7-7-7----------------|
B --9--9--------------------------9--9---------------------------------|
G ---------------------------------------------------------------------|
D ---------------------------------------------------------------------|
A ---------------------------------------------------------------------|
E ---------------------------------------------------------------------|
comments
print report bad tab
1 comment total.
0 reply
kenji.miura.969 wrote on April 19 2013, 03:46 am

For the intro part 2 you should try
E ----11--|7|--11-----11--14--11--11--
A -9----- |12|-----9-----------------
D --------------------------------
G -------------------------------- X2
B --------------------------------
E --------------------------------
The 7 and 12 in |#| means you can choose either or.
To make it easier:
E ----11-----11----11----14--11--11--
A -9----- 9------9-----------------
D --------------------------------
G --------------------------------
B --------------------------------
E --------------------------------
And I'm 13 so this might not be right.

I want to post or [tab]
guest
You may want to rate the tab now too:
select rating
Please do not post tabs as comments. Select "correction" instead!