Oops, an error
Loading. Please wait.

Amsterdam Tab

version 3
version 3

Interactive

4,960 views 24 this week
4 commentsread comments
1 2 3 4 5
excellent!
x 15
add to favorites
launch autoscroll
font size
0
reset
how to read this tab
guitar tuner
Autoscroll
slow
fast
+/-
esc
set tempo
stop
Help us to improve Ultimate-Guitar.com Take our survey!
×
Author
Difficulty
intermediate
    No Capo

Intro:

e|0-12-11---9-------------|
B|--------12-----9-12-9---|
G|------------11----------|
D|------------------------|  2x
A|------------------------|
E|------------------------|


Pre-verse 1:

e|------------14-14-11-11----|
B|------12-12----------------|
G|13-13----------------------|
D|---------------------------| 8x
A|---------------------------|
E|---------------------------|



Verse 1:

            E                 B
          I'm sorry, mother, I'm sorry, I let you down

                  G#m                               A
          Well, these days I'm fine; no these days I tend to lie

          E                        B
          I'll take the West train, just by the side of Amsterdam

          G#m                   A
          Just by my left brain, just by the side of the Tin man


         e|------------14-14-11-11----|
         B|------12-12----------------|
         G|13-13----------------------|
         D|---------------------------|  4x
         A|---------------------------|
         E|---------------------------|



               E                     B
          I'm sorry, brother, I'm sorry, I let you down

                  G#m                                   A
          Well, these days you're fine; no these days you tend to lie

          E                          B
          You'll take the West train, just by the side of Amsterdam

          G#m                     A
          Just by your left brain, just by the side of the tin man






               E           B           A
Chorus:   Your time will come if you wait for it, if you wait for it

                 E       B                A
          It's hard, believe me... I've tried


          But I keep coming up short



Pre-verse 2:


e|------------14-14-11-11----|
B|------12-12----------------|
G|13-13----------------------|
D|---------------------------|  4x
A|---------------------------|
E|---------------------------|

          


               E                      B
Verse 2:  I'm sorry, lover; you're sorry I bring you down

                  G#m
          Well, these days I try, and these days I tend to lie

          E                                 B
          Kinda thought I was a mystery and then I thought I wasn't meant to be

          G#m                              A
          You said yourself fantastically, "Congratulations you were all alone"






               E           B           A
Chorus:   Your time will come if you wait for it, if you wait for it

                 E       B                A
          It's hard, believe me... I've tried

               E           B           A
          Your time will come if you wait for it, if you wait for it

                 E       B                A
          It's hard, believe me... I've tried






                  B                      (C#m)
Bridge:   But the rain won't fall for the both of us

              A
          The sun won't shine on the both of us

          B
          Believe me when I say, that I wouldn't have it any other way

          e|------------------------------------------------------|
          B|------------12-------------------------12-------------|
          G|------13-13----13-13-13-13-------13-13----13-13-13-13-|
          D|14-14----------------------12-12----------------------| 
          A|------------------------------------------------------|
          E|------------------------------------------------------|

          e|----------------------------------------------------------|
          B|------------12---------------------------12---------------|
          G|------13-13----13-13-13-13---------13-13----13-13-13-13---|
          D|11-11------------------------11-11------------------------| 
          A|----------------------------------------------------------| x2
          E|----------------------------------------------------------|



        


               E           B           A
Chorus: Your time will come if you wait for it, if you wait for it

               E         B                A
          It's hard, believe me... I've tried

                                      E               B                    A
          But I won't wait much longer 'cause these walls they're crashing down

                                      E               B                    A
          And I won't wait much longer 'cause these walls they're crashing down

                                 E                       E    
          And I keep coming up short


Thanks, this is my first tab, so let me know if there are any errors.
Suggest correction
comments
print report bad tab
4 comments total. Showing first comments.
0 reply
Tomr221 51 wrote on January 12 2014, 06:03 pm

Sounds good but I can think of an easier way to play the pre-verse riff that requires you to move your hand less.


e|------------14-14-11-11----|
B|------12-12----------------|
G|13-13----------------------|
D|---------------------------|
A|---------------------------|
E|---------------------------|

0 reply
lockion 276 wrote on January 31 2015, 11:16 am

At the end of the bridge Wayne plays this:

e|------------------------------------------------------|
B|------------12-------------------------12-------------|
G|------13-13----13-13-13-13-------13-13----13-13-13-13-|
D|14-14----------------------12-12----------------------|
A|------------------------------------------------------|
E|------------------------------------------------------|

e|----------------------------------------------------------|
B|------------12---------------------------12---------------|
G|------13-13----13-13-13-13---------13-13----13-13-13-13---|
D|11-11------------------------11-11------------------------|
A|----------------------------------------------------------| x2
E|----------------------------------------------------------|

+3 reply
chacho.bruh 944 wrote on October 23 2015, 04:08 pm

I'm fairly sure the intro is actually this



e|--------11-11-14-14-11-11-------------14-14--------------------|
B|--------------------------------12-12-------12-12--------------|
G|--13-13-------------------11-11--------------------------------|
D|---------------------------------------------------------------|
A|---------------------------------------------------------------|
E|---------------------------------------------------------------|

e|--------------14-14-------------------14-14--------------------|
B|---------------------------------------------------------------|
G|--------13-13-------13-13-------13-13-------13-13--------------|
D|--13-13-------------------13-13--------------------------------|
A|---------------------------------------------------------------|
E|---------------------------------------------------------------|

e|--------11-11-14-14-11-11-------------14-14--------------------|
B|--------------------------------12-12-------12-12--------------|
G|--13-13-------------------11-11--------------------------------|
D|---------------------------------------------------------------|
A|---------------------------------------------------------------|
E|---------------------------------------------------------------|

e|--------------14-14-------------------14-14--------------------|
B|---------------------------------------------------------------|
G|--------13-13-------13-13-------13-13-------13-13--------------|
D|--13-13-------------------14-14--------------------------------|
A|---------------------------------------------------------------|
E|---------------------------------------------------------------|


Pre verse 1 is the first two bars played again, and pre verse 2 is the second two bars played again.

guest
You may want to rate the tab now too:
select rating
Please do not post tabs as comments. Select "correction" instead!