Oops, an error
Loading. Please wait.

Amsterdam tab

version 6
version 6

Interactive

211 views 3 this week
no commentswrite comment
1 2 3 4 5
2 more votes to show rating
add to favorites
×
Save as Personal and add changes to this tab that will be seen only by you. Learn more ›
×
You can save this tab as Personal to edit and correct it or add notes. All changes will be seen only by you. Learn more »
launch autoscroll
font size
0
reset
how to read this tab
guitar tuner
edit
Autoscroll
slow
fast
+/-
esc
set tempo
stop
Author
Difficulty
-------------------------------------------------------------------------------
                             Amsterdam – Imagine Dragons
-------------------------------------------------------------------------------
Tabbed by: bpez96
E-mail: bpez96@gmail.com

Tuning: Standard

Intro:

e|-0-12-11------9-------------------------|
B|----------12--------9--12-9-------------|
G|-----------------11---------------------|
D|----------------------------------------| x2
A|----------------------------------------|
E|----------------------------------------|

P.M.
e|----------------------------------------|
B|---x-x-x-x-x-x-x------------------------|
G|---9-9-9-9-9-9-9------------------------|
D|----------------------------------------|
A|----------------------------------------|
E|----------------------------------------|

Verse:

e|-------11----14-----11-11-----11---------------14--------------------------|
B|---------------------------14------------12---------12-12----12------------|
G|-13-13----13----13--------------------------13---13-------13---------------|
D|-----------------------------------13-13-----------------------------------|
A|---------------------------------------------------------------------------|
E|---------------------------------------------------------------------------|

e|-------------14--------------------------------14--------------------------|
B|-------12----------12-12----12-----------12----------12-12----12-----------|
G|----------13----13-------13-----------------13----13-------13--------------|
D|---------------------------------------------------------------------------|
A|-14-14-----------------------------14-14-----------------------------------|
E|---------------------------------------------------------------------------|

e|-------11----14-----11-11-----11---------------14--------------------------|
B|---------------------------14------------12---------12-12----12------------|
G|-13-13----13----13--------------------------13---13-------13---------------|
D|-----------------------------------13-13-----------------------------------|
A|---------------------------------------------------------------------------|
E|---------------------------------------------------------------------------|

e|-------------14--------------------------------14--------------------------|
B|-------12----------12-12----12-----------12----------12-12----12-----------|
G|----------13----13-------13-----------------13----13-------13--------------|
D|-----------------------------------11-11-----------------------------------|
A|-14-14---------------------------------------------------------------------|
E|---------------------------------------------------------------------------|

P.M.
e|----------------------------------------|
B|---x-x-x-x-x-x-x------------------------|
G|---9-9-9-9-9-9-9------------------------|
D|----------------------------------------|
A|----------------------------------------|
E|----------------------------------------|

Chorus:

e|-0-------------------------2-----------------0-----|
B|-0------12-----------------4------12---------------|
G|-1--13------13---13-11-13--4--13-----13---13---13--|
D|-2-------------------------4-----------------------|
A|-2-------------------------2-----------------------|
E|-0-------------------------------------------------|

e|-0------------------0-----0------------------0-----|
B|-2------12----------------2------12----------------|
G|-2--13------13---13---13--2--13------13---13---13--|
D|-2------------------------2------------------------|
A|-0------------------------0------------------------|
E|---------------------------------------------------|

Verse:

e|-------11----14-----11-11-----11---------------14--------------------------|
B|---------------------------14------------12---------12-12----12------------|
G|-13-13----13----13--------------------------13---13-------13---------------|
D|-----------------------------------13-13-----------------------------------|
A|---------------------------------------------------------------------------|
E|---------------------------------------------------------------------------|

e|-------------14--------------------------------14--------------------------|
B|-------12----------12-12----12-----------12----------12-12----12-----------|
G|----------13----13-------13-----------------13----13-------13--------------|
D|---------------------------------------------------------------------------|
A|-14-14-----------------------------14-14-----------------------------------|
E|---------------------------------------------------------------------------|

e|-------11----14-----11-11-----11---------------14--------------------------|
B|---------------------------14------------12---------12-12----12------------|
G|-13-13----13----13--------------------------13---13-------13---------------|
D|-----------------------------------13-13-----------------------------------|
A|---------------------------------------------------------------------------|
E|---------------------------------------------------------------------------|

e|-------------14--------------------------------14--------------------------|
B|-------12----------12-12----12-----------12----------12-12----12-----------|
G|----------13----13-------13-----------------13----13-------13--------------|
D|-----------------------------------11-11-----------------------------------|
A|-14-14---------------------------------------------------------------------|
E|---------------------------------------------------------------------------|

P.M.
e|----------------------------------------|
B|---x-x-x-x-x-x-x------------------------|
G|---9-9-9-9-9-9-9------------------------|
D|----------------------------------------|
A|----------------------------------------|
E|----------------------------------------|

Chorus:

e|-0-------------------------2-----------------0-----|
B|-0------12-----------------4------12---------------|
G|-1--13------13---13-11-13--4--13-----13---13---13--|
D|-2-------------------------4-----------------------|
A|-2-------------------------2-----------------------|
E|-0-------------------------------------------------|

e|-0------------------0-----0------------------0-----|
B|-2------12----------------2------12----------------|
G|-2--13------13---13---13--2--13------13---13---13--|
D|-2------------------------2------------------------|
A|-0------------------------0------------------------|
E|---------------------------------------------------|

Bridge:

   B    C#m    B     B

e|-2-----4-----2-----2-|
B|-4-----5-----4-----4-|
G|-4-----6-----4-----4-|
D|-4-----6-----4-----4-|
A|-2-----4-----2-----2-|
E|---------------------|

Interlude

Gt.1

e|-------11----14-----11-11-----11---------------14--------------------------|
B|---------------------------14------------12---------12-12----12------------|
G|-13-13----13----13--------------------------13---13-------13---------------|
D|-----------------------------------13-13-----------------------------------|
A|---------------------------------------------------------------------------|
E|---------------------------------------------------------------------------|

e|-------------14--------------------------------14--------------------------|
B|-------12----------12-12----12-----------12----------12-12----12-----------|
G|----------13----13-------13-----------------13----13-------13--------------|
D|---------------------------------------------------------------------------|
A|-14-14-----------------------------14-14-----------------------------------|
E|---------------------------------------------------------------------------|

e|-------11----14-----11-11-----11---------------14--------------------------|
B|---------------------------14------------12---------12-12----12------------|
G|-13-13----13----13--------------------------13---13-------13---------------|
D|-----------------------------------13-13-----------------------------------|
A|---------------------------------------------------------------------------|
E|---------------------------------------------------------------------------|

e|-------------14--------------------------------14--------------------------|
B|-------12----------12-12----12-----------12----------12-12----12-----------|
G|----------13----13-------13-----------------13----13-------13--------------|
D|-----------------------------------11-11-----------------------------------|
A|-14-14---------------------------------------------------------------------|
E|---------------------------------------------------------------------------|

P.M.
e|----------------------------------------|
B|---x-x-x-x-x-x-x------------------------|
G|---9-9-9-9-9-9-9------------------------|
D|----------------------------------------|
A|----------------------------------------|
E|----------------------------------------|

Gt.2

e|----------------------------------------|
B|----------------------------------------|
G|----------------------------------------|
D|-x-x-x-14//////-------------------------|
A|----------------x-x-x-14//////----------|
E|----------------------------------------|

e|----------------------------------------|
B|--------------------x-x-x-x-x-x-x-------|
G|-x-x-x-13//////-----9-9-9-9-9-9-9-------|
D|----------------------------------------|
A|----------------------------------------|
E|----------------------------------------|



Chorus:

e|-0-------------------------2-----------------0-----|
B|-0------12-----------------4------12---------------|
G|-1--13------13---13-11-13--4--13-----13---13---13--|
D|-2-------------------------4-----------------------|
A|-2-------------------------2-----------------------|
E|-0-------------------------------------------------|

e|-0------------------0-----0------------------0-----|
B|-2------12----------------2------12----------------|
G|-2--13------13---13---13--2--13------13---13---13--|
D|-2------------------------2------------------------|
A|-0------------------------0------------------------|
E|---------------------------------------------------|

End on E

e|-0-|
B|-0-|
G|-1-|
D|-2-|
A|-2-|
E|-0-|

************************************

| PM  palm mute
| /   slide up
| \   slide down
| h   hammer-on
| p   pull-off
| ~   vibrato
| +   harmonic
| x   Mute note
| b   Bend
| pb  Pre-bend
| br  Bend release
| pbr Pre-bend release
| brb Bend release bend

************************************
Suggest correction
Creating personal tab
Creating personal tab
You can edit any tab online and save it as your Personal.

You can edit, replace or remove any tab part or add personal notes – all changes will be seen only by you.

Personal tabs can be accessed anytime from any device, even offline.
Learn more »
Give kudos to tab author, rate the tab!
1 2 3 4 5
comments
print report bad tab
guest
You may want to rate the tab now too:
select rating
Wanna post a correction for this tab? Suggest correction