Oops, an error
Loading. Please wait.
We have an official Believer tab made by UG professional guitarists. Check out the tab »
×
4,828 views 336 this week
3 commentsread comments
1 2 3 4 5
1 last vote to show rating
add to favorites
×
Save as Personal and add changes to this tab that will be seen only by you. Learn more ›
×
You can save this tab as Personal to edit and correct it or add notes. All changes will be seen only by you. Learn more »
launch autoscroll
font size
0
reset
guitar tuner
backing track
0:00
0:00
edit
Autoscroll
slow
fast
+/-
esc
set tempo
stop
Author
Difficulty
Imagine Dragons 

Believer (bass tab)

Tuning: F Bb D# G#

[Intro]
G#|--------| 1x
D#|--------|
Bb|--12\---|
F |--------|

 
[Verse 1]
G#|---5-5-5-5-5-5-5-5--5-5-5-5--4-4-4-4----| 1x
D#|--7-7-7-7-7-7-7-7--3-3-3-3--6-6-6-6-----|
Bb|----------------------------------------|
F |----------------------------------------|

[Verse 2]
G#|---5-5-5-5-5-5-5-5--5-5-5-5--4-4-4-4----| 5x
D#|--7-7-7-7-7-7-7-7--3-3-3-3--6-6-6-6-----|
Bb|-0~-------------------------------------|
F |----------------------------------------| 

[Chorus]
G#|------------------------------------------------------------| 4x
D#|----------------------------------------------2-------------|
Bb|---------------------------------------------2-2-----------|
F |---5~5-5-5-5-5-5-5----1~1-1-1-1-1-1---0-0-0-0---------------|

[Verse 2]
G#|---5-5-5-5-5-5-5-5--5-5-5-5--4-4-4-4----| 4x
D#|--7-7-7-7-7-7-7-7--3-3-3-3--6-6-6-6-----|
Bb|-0~-------------------------------------|
F |----------------------------------------| 

[Chorus]
G#|-------------------------------------------------------------| 4x
D#|-----------------------------------------------2-------------|
Bb|----------------------------------------------2--2-----------|
F |---5~5-5-5-5-5-5-5----1~1-1-1-1-1-1---0-0-0-0----------------|

[Verse 1]
G#|---5-5-5-5-5-5-5-5--5-5-5-5--4-4-4-4----| 2x
D#|--7-7-7-7-7-7-7-7--3-3-3-3--6-6-6-6-----|
Bb|----------------------------------------|
F |----------------------------------------|

[Bridge]
G#|---------------------| 1x
D#|---------------------|
Bb|---------------------|
F |-1~--1-1-1~---3~4~---|

[Chorus]
G#|--------------------------------------------------------------| 4x
D#|--------------------------------------------------------------|
Bb|--------------------------------------------------------------|
F |---5~5-5-5-5-5-5-5----1~1-1-1-1-1-1---0-0-0-0-----------------|
 

************************************

| \  Slide down
| ~  Let it ring

************************************

            
            
Suggest correction
Creating personal tab
Creating personal tab
You can edit any tab online and save it as your Personal.

You can edit, replace or remove any tab part or add personal notes – all changes will be seen only by you.

Personal tabs can be accessed anytime from any device, even offline.
Learn more »
Give kudos to tab author, rate the tab!
1 2 3 4 5
comments
print report bad tab
3 comments total.
0 reply
heyjames7 10 May 12, 2017 05:29 PM

Wrong key. Try Bb, up a half step.

0 reply
Latela20 126 May 15, 2017 01:41 PM

Sorry guys i the tab wasn't correct. Now it is.

guest
You may want to rate the tab now too:
select rating
Wanna post a correction for this tab? Suggest correction