Oops, an error
Loading. Please wait.
We have an official Believer tab made by UG professional guitarists. Check out the tab »
×

Believer tab

version 1
version 1

Whole song

  • Tab for Believer, with Acoustic Riff and Electric Chords.
  • Moved picking so its easier and i added a bass note.
  • Fully structured tab with song timings, easy to follow.

Video

  • High quality video, on screen guitar tab, easy to follow.
49,858 views 3,213 this week
1 commentread comment
1 2 3 4 5
x 31
add to favorites
×
Save as Personal and add changes to this tab that will be seen only by you. Learn more ›
×
You can save this tab as Personal to edit and correct it or add notes. All changes will be seen only by you. Learn more »
launch autoscroll
font size
0
reset
how to read this tab
guitar tuner
backing track
0:00
0:00
edit
Autoscroll
slow
fast
+/-
esc
set tempo
stop
-------------------------------------------------------------------------------
                          Believer - Imagine Dragons
-------------------------------------------------------------------------------
Tabbed by: Asa Wentworth. 
Email me: asawentworth@yahoo.com

Tuning: Standard

Here's a  quick tab on Imagine Dragons amazaing new song, Believer. 
It's really simple, so it shouldn't be hard to follow.
The main acoustic riff repeats through literally the entire song.

[Verse]

Acoustic Guitar

0:07
"First things first..."
e|---------------------------------------------------------------------------|
B|---------------------------------------------------------------------------|
G|----6---6---6---6---6---6---6---6---6---6---6---6---5---5---5---5----------|
D|--8---8---8---8---8---8---8---8---4---4---4---4---7---7---7---7------------| (x4)
A|---------------------------------------------------------------------------|
E|---------------------------------------------------------------------------|
this is all slightly palm-muted

[Pre-Chorus]

0:39
"...broken from a..."
e|---------------------------------------------------------------------------|
B|---------------------------------------------------------------------------|
G|----6---6---6---6---6---6---6---6---6---6---6---6---5---5---5---5----------|
D|--8---8---8---8---8---8---8---8---4---4---4---4---7---7---7---7------------|
A|---------------------------------------------------------------------------|
E|---------------------------------------------------------------------------|

e|---------------------------------------------------------------------------|
B|---------------------------------------------------------------------------|
G|----6---6---6---6---6---6---6---6---6---6---6---6---5---5------------------|
D|--8---8---8---8---8---8---8---8---4---4---4---4---7---7--------------------|
A|---------------------------------------------------------------------------|
E|---------------------------------------------------------------------------|

[Chorus]

0:55
"Pain!"
e|---------------------------------------------------------------------------|
B|---------------------------------------------------------------------------|
G|----6---6---6---6---6---6---6---6---6---6---6---6---5---5---5---5----------|
D|--8---8---8---8---8---8---8---8---4---4---4---4---7---7---7---7------------| (x4)
A|---------------------------------------------------------------------------|
E|---------------------------------------------------------------------------|

[Verse]

Acoustic Guitar

1:25
"Third things third..."
e|---------------------------------------------------------------------------|
B|---------------------------------------------------------------------------|
G|----6---6---6---6---6---6---6---6---6---6---6---6---5---5---5---5----------|
D|--8---8---8---8---8---8---8---8---4---4---4---4---7---7---7---7------------| (x4)
A|---------------------------------------------------------------------------|
E|---------------------------------------------------------------------------|

Electric Guitar

1:33
"...dove, oh..."
e|---------------------------------------------------------------------------|
B|--11-11-11-11-11-11--------10-10-10-10-10-10-------------------------------|
G|--10-10-10-10-10-10--(x3)--10-10-10-10-10-10-------------------------------|
D|---------------------------------------------------------------------------|
A|---------------------------------------------------------------------------|
E|---------------------------------------------------------------------------|
this is palmed with a little delay. Heard in the right ear, it's really quick.

[Pre-Chorus]

Acoustic Guitar

1:40
"...choking in the..."
e|---------------------------------------------------------------------------|
B|---------------------------------------------------------------------------|
G|----6---6---6---6---6---6---6---6---6---6---6---6---5---5---5---5----------|
D|--8---8---8---8---8---8---8---8---4---4---4---4---7---7---7---7------------|
A|---------------------------------------------------------------------------|
E|---------------------------------------------------------------------------|

e|---------------------------------------------------------------------------|
B|---------------------------------------------------------------------------|
G|----6---6---6---6---6---6---6---6---6---6---6---6---5---5------------------|
D|--8---8---8---8---8---8---8---8---4---4---4---4---7---7--------------------|
A|---------------------------------------------------------------------------|
E|---------------------------------------------------------------------------|

Electric Guitar

1:40
"...choking in the..."
e|-----------------------------------------------------------------------------------|
B|--11-11-11-11-11-11-11-11-11-11-11-11--------10-10-10-10-10-10-10-10-10-10-10-10---|
G|--10-10-10-10-10-10-10-10-10-10-10-10--(x3)--10-10-10-10-10-10-10-10-10-10-10-10---|
D|-----------------------------------------------------------------------------------|
A|-----------------------------------------------------------------------------------|
E|-----------------------------------------------------------------------------------|

e|-----------------------------------------------------------------------------------|
B|--11-11-11-11-11-11-11-11-11-11-11-11--------10-10-10-10-10-10---------------------|
G|--10-10-10-10-10-10-10-10-10-10-10-10--(x3)--10-10-10-10-10-10---------------------|
D|-----------------------------------------------------------------------------------|
A|-----------------------------------------------------------------------------------|
E|-----------------------------------------------------------------------------------|

[Chorus]

Acoustic Guitar

1:55
"Pain!"
e|---------------------------------------------------------------------------|
B|---------------------------------------------------------------------------|
G|----6---6---6---6---6---6---6---6---6---6---6---6---5---5---5---5----------|
D|--8---8---8---8---8---8---8---8---4---4---4---4---7---7---7---7------------| (x4)
A|---------------------------------------------------------------------------|
E|---------------------------------------------------------------------------|

Electric Guitar

1:56
"Pain!"
e|-----9----9----9----9----9----9----9----9---9---9---9---9----8----8----8----8---|
B|--11---11---11---11---11---11---11---11---7---7---7---7---10---10---10---10-----|
G|--------------------------------------------------------------------------------|
D|--------------------------------------------------------------------------------|
A|--------------------------------------------------------------------------------| (x4)
E|--------------------------------------------------------------------------------|
Slight distortion and delay effects. 
It also sounds like another guitar is strumming these as chords in the background.

[Bridge]

Acoustic Guitar

"Last things last..."
2:25
e|---------------------------------------------------------------------------|
B|---------------------------------------------------------------------------|
G|----6---6---6---6---6---6---6---6---6---6---6---6---5---5---5---5----------|
D|--8---8---8---8---8---8---8---8---4---4---4---4---7---7---7---7------------| (x2)
A|---------------------------------------------------------------------------|
E|---------------------------------------------------------------------------|

Electric Guitar

2:38
"Ooh, ooh..."
e|---------------------------------------------------------------------------|
B|--11--10--13--14-----------------------------------------------------------|
G|---------------------------------------------------------------------------|
D|---------------------------------------------------------------------------|
A|---------------------------------------------------------------------------|
E|---------------------------------------------------------------------------|
Sounds like a keyboard maybe but could also be an electric with delay.
The 13 and 14 sound like they could be very slightly alternatively picked.

[Chorus]

Acoustic Guitar

2:50
"Pain!"
e|---------------------------------------------------------------------------|
B|---------------------------------------------------------------------------|
G|----6---6---6---6---6---6---6---6---6---6---6---6---5---5---5---5----------|
D|--8---8---8---8---8---8---8---8---4---4---4---4---7---7---7---7------------| (x4)
A|---------------------------------------------------------------------------|
E|---------------------------------------------------------------------------|

Electric Guitar

2:50
"Pain!"
e|-----9----9----9----9----9----9----9----9---9---9---9---9----8----8----8----8---|
B|--11---11---11---11---11---11---11---11---7---7---7---7---10---10---10---10-----|
G|--------------------------------------------------------------------------------|
D|--------------------------------------------------------------------------------|
A|--------------------------------------------------------------------------------| (x4)
E|--------------------------------------------------------------------------------|
if you play these as chords, put a little more emphasis into it and add some more distortion.

-

That's it! Rate & comment!

            
            
Suggest correction
Creating personal tab
Creating personal tab
You can edit any tab online and save it as your Personal.

You can edit, replace or remove any tab part or add personal notes – all changes will be seen only by you.

Personal tabs can be accessed anytime from any device, even offline.
Learn more »
comments
print report bad tab
1 comment total.
+6 reply
kellerw201 43 Feb 03, 2017 06:52 PM

Well this was made quick

guest
You may want to rate the tab now too:
select rating
Wanna post a correction for this tab? Suggest correction