Oops, an error
Loading. Please wait.
We have an official Believer tab made by UG professional guitarists. Check out the tab »
×

Believer tab

version 2
version 2

Whole song

  • Tab for Believer, with Acoustic Riff and Electric Chords.
  • Moved picking so its easier and i added a bass note.
  • Fully structured tab with song timings, easy to follow.

Video

  • High quality video, on screen guitar tab, easy to follow.
3,544 views 228 this week
no commentswrite comment
1 2 3 4 5
x 4
add to favorites
×
Save as Personal and add changes to this tab that will be seen only by you. Learn more ›
×
You can save this tab as Personal to edit and correct it or add notes. All changes will be seen only by you. Learn more »
launch autoscroll
font size
0
reset
how to read this tab
guitar tuner
backing track
0:00
0:00
edit
Autoscroll
slow
fast
+/-
esc
set tempo
stop
Author
Difficulty
About this tab version
Tab for Believer, with Acoustic Riff and Electric Chords. Was this info helpful? Yes No
This same pattern happens throughout the whole song, and it can be played like this or with just the first and
second notes played, skipping the last note. I can't tell which Wayne is doing, it sounds good both ways. It's
definitly easier to play without the last, and sounds just as good...

[Whole song]
e|---------------------------------------------------------------------------------------------------|
B|--------6----6-----6-----6-----6-----6-----6-----6-----2-----2-----2-----2-----1-----1-----1-----1-|
G|------6----6-----6-----6-----6-----6-----6-----6-----3-----3-----3-----3-----2-----2-----2-----2---|
D|----8----8-----8-----8-----8-----8-----8-----8-----4-----4-----4-----4-----3-----3-----3-----3-----|
A|---------------------------------------------------------------------------------------------------|
E|---------------------------------------------------------------------------------------------------|

[Chorus]
The bend in the chorus is: 
e|---------------------------------------------------------------------------|
B|---------------------------------------------------------------------------|
G|----14 Bent half a step up to 15-------------------------------------------|
D|---------------------------------------------------------------------------|
A|---------------------------------------------------------------------------|
E|---------------------------------------------------------------------------|

(Also, during the second half of the chorus you can play these power chords dirty...)
e|-----------------------------------|
B|-----------------------------------|
G|-----------------------------------|
D|-----8--------------4---3----------|(X2)
A|-----8--------------4---3----------|
E|-----6--------------2---1----------|

            
            
Suggest correction
Creating personal tab
Creating personal tab
You can edit any tab online and save it as your Personal.

You can edit, replace or remove any tab part or add personal notes – all changes will be seen only by you.

Personal tabs can be accessed anytime from any device, even offline.
Learn more »
comments
print report bad tab
guest
You may want to rate the tab now too:
select rating
Wanna post a correction for this tab? Suggest correction