Oops, an error
Loading. Please wait.
We have an official Believer tab made by UG professional guitarists. Check out the tab »
×

Believer tab

version 3
version 3

Whole song

  • Tab for Believer, with Acoustic Riff and Electric Chords.
  • Moved picking so its easier and i added a bass note.
  • Fully structured tab with song timings, easy to follow.

Video

  • High quality video, on screen guitar tab, easy to follow.
2,278 views 171 this week
no commentswrite comment
1 2 3 4 5
x 3
add to favorites
×
Save as Personal and add changes to this tab that will be seen only by you. Learn more ›
×
You can save this tab as Personal to edit and correct it or add notes. All changes will be seen only by you. Learn more »
launch autoscroll
font size
0
reset
how to read this tab
guitar tuner
backing track
0:00
0:00
edit
Autoscroll
slow
fast
+/-
esc
set tempo
stop
About this tab version
Moved picking so its easier and i added a bass note. Was this info helpful? Yes No
Believer - Imagine Dragons
Simple Picking to Believer
Capo 1

[Verse 1]
    First   things     first   im   a  say     all the words inside my
e|---------------------------------------------------------------------------|
B|--------1-------1--------1--------1-------1-------1--------1------1--------|
G|---2-------2--------2--------2--------2-------2-------2-------2------------|
D|---------------------------------------------------------------------------|
A|---0-----------------------------------------------------------------------|
E|---------------------------------------------------------------------------|

   head     im        fire   ed   up   and
e|---------------------------------------------------------------------------|
B|-------1-------1-----------1----------1------------------------------------|
G|---------------------------------------------------------------------------|
D|---3------3---------3------------3-----------------------------------------|
A|---------------------------------------------------------------------------|
E|---1-----------------------------------------------------------------------|

     tir  ed    of   the   way  that  things have
e|---------------------------------------------------------------------------|
B|---------0----------0-----------0------------0-----------------------------|
G|----1---------1-----------1-----------1------------------------------------|
D|---------------------------------------------------------------------------|
A|----2----------------------------------------------------------------------|
E|---------------------------------------------------------------------------|

    been     oh        oooooooooooooooooo          the way that things have
e|---------------------------------------------------------------------------|
B|--------1-------1--------1--------1-------1-------1--------1-----------1---|
G|---2--------2--------2--------2--------2-------2-------2----------2--------|
D|---------------------------------------------------------------------------|
A|---0-----------------------------------------------------------------------|
E|---------------------------------------------------------------------------|

   been     oh        oooooooooooooooooo
e|---------------------------------------------------------------------------|
B|-------1-------1-----------1----------1------------------------------------|
G|---------------------------------------------------------------------------|
D|---3------3---------3------------3-----------------------------------------|
A|---------------------------------------------------------------------------|
E|---1-----------------------------------------------------------------------|

     oooooo
e|---------------------------------------------------------------------------|
B|---------0----------0-----------0------------0-----------------------------|
G|----1---------1-----------1-----------1------------------------------------|
D|---------------------------------------------------------------------------|
A|----2----------------------------------------------------------------------|
E|---------------------------------------------------------------------------|
continue the picking above to the next line:
Second thing second Don't you 
tell me what you think that I can 
be I'm the one at the 
sail, I'm the master of my 
sea, oh-ooh The master of my 
sea, oh-oo
oh

[Pre-Chorus]
I was
   Broken...
e|---------------------------------------------------------------------------|
B|--------1-------1--------1--------1-------1-------1--------1------1--------|
G|---2-------2--------2--------2--------2-------2-------2-------2------------|
D|---------------------------------------------------------------------------|
A|---0-----------------------------------------------------------------------|
E|---------------------------------------------------------------------------|

   poems....
e|---------------------------------------------------------------------------|
B|-------1-------1-----------1----------1------------------------------------|
G|---------------------------------------------------------------------------|
D|---3------3---------3------------3-----------------------------------------|
A|---------------------------------------------------------------------------|
E|---1-----------------------------------------------------------------------|

  took to me....
e|---------------------------------------------------------------------------|
B|---------0----------0-----------0------------0-----------------------------|
G|----1---------1-----------1-----------1------------------------------------|
D|---------------------------------------------------------------------------|
A|----2----------------------------------------------------------------------|
E|---------------------------------------------------------------------------|

  Heart ache...
e|---------------------------------------------------------------------------|
B|--------1-------1--------1--------1-------1-------1--------1------1--------|
G|---2-------2--------2--------2--------2-------2-------2-------2------------|
D|---------------------------------------------------------------------------|
A|---0-----------------------------------------------------------------------|
E|---------------------------------------------------------------------------|

   lesson...
e|---------------------------------------------------------------------------|
B|-------1-------1-----------1----------1------------------------------------|
G|---------------------------------------------------------------------------|
D|---3------3---------3------------3-----------------------------------------|
A|---------------------------------------------------------------------------|
E|---1-----------------------------------------------------------------------|

   Beauty         through the  
e|---------------------------------------------------------------------------|
B|---------0----------0-----------0------------0-----------------------------|
G|----1---------1-----------1-----------1------------------------------------|
D|---------------------------------------------------------------------------|
A|----2----------------------------------------------------------------------|
E|---------------------------------------------------------------------------|

[Chorus]
for a fuller effect in the chorus like in the song, strum these chords,
 or if you want to keep picking you can
                     Am
                    PAIN          you make me   a you  make me  a  be-               
e|---------------------------------------------------------------------------|
B|--------1-------1--------1--------1-------1-------1--------1------1--------|
G|---2-------2--------2--------2--------2-------2-------2-------2------------|
D|---------------------------------------------------------------------------|
A|---0-----------------------------------------------------------------------|
E|---------------------------------------------------------------------------|
   
     F
    -leiver                        a   be-
e|---------------------------------------------------------------------------|
B|-------1-------1-----------1----------1------------------------------------|
G|---------------------------------------------------------------------------|
D|---3------3---------3------------3-----------------------------------------|
A|---------------------------------------------------------------------------|
E|---1-----------------------------------------------------------------------|

     E
    -Lei   v - er
e|---------------------------------------------------------------------------|
B|---------0----------0-----------0------------0-----------------------------|
G|----1---------1-----------1-----------1------------------------------------|
D|---------------------------------------------------------------------------| x2
A|----2----------------------------------------------------------------------|
E|---------------------------------------------------------------------------|

[Verse 2]

   Third   things   third    send  a prayer    to  the ones    up   a
e|---------------------------------------------------------------------------|
B|--------1-------1--------1--------1-------1-------1--------1------1--------|
G|---2-------2--------2--------2--------2-------2-------2-------2------------|
D|---------------------------------------------------------------------------|
A|---0-----------------------------------------------------------------------|
E|---------------------------------------------------------------------------|

    bove   all  the  hate         that youve
e|---------------------------------------------------------------------------|
B|-------1-------1-----------1----------1------------------------------------|
G|---------------------------------------------------------------------------|
D|---3------3---------3------------3-----------------------------------------|
A|---------------------------------------------------------------------------|
E|---1-----------------------------------------------------------------------|

   heard  has turned your   spirit      to     a   
e|---------------------------------------------------------------------------|
B|---------0----------0-----------0------------0-----------------------------|
G|----1---------1-----------1-----------1------------------------------------|
D|---------------------------------------------------------------------------|
A|----2----------------------------------------------------------------------|
E|---------------------------------------------------------------------------|

    dev-   -el        oooooooooooooo    ohhhhhhhh your spir it up   a-   
e|---------------------------------------------------------------------------|
B|--------1-------1--------1--------1-------1-------1--------1------1--------|
G|---2-------2--------2--------2--------2-------2-------2-------2------------|
D|---------------------------------------------------------------------------|
A|---0-----------------------------------------------------------------------|
E|---------------------------------------------------------------------------|

   -bove    oh        ooooooooooooooooooo
e|---------------------------------------------------------------------------|
B|-------1-------1-----------1----------1------------------------------------|
G|---------------------------------------------------------------------------|
D|---3------3---------3------------3-----------------------------------------|
A|---------------------------------------------------------------------------|
E|---1-----------------------------------------------------------------------|

      ahhhhhhhhhhhhhh
e|---------------------------------------------------------------------------|
B|---------0----------0-----------0------------0-----------------------------|
G|----1---------1-----------1-----------1------------------------------------|
D|---------------------------------------------------------------------------|
A|----2----------------------------------------------------------------------|
E|---------------------------------------------------------------------------|

[Pre-Chorus]
I was
    choking in  the crowd leavin my head up in the clouds fallin like  
e|---------------------------------------------------------------------------|
B|--------1-------1--------1--------1-------1-------1--------1------1--------|
G|---2-------2--------2--------2--------2-------2-------2-------2------------|
D|---------------------------------------------------------------------------|
A|---0-----------------------------------------------------------------------|
E|---------------------------------------------------------------------------|

    ashes  to   the  ground hope  ing   my
e|---------------------------------------------------------------------------|
B|-------1-------1-----------1----------1------------------------------------|
G|---------------------------------------------------------------------------|
D|---3------3---------3------------3-----------------------------------------|
A|---------------------------------------------------------------------------|
E|---1-----------------------------------------------------------------------|

     feel ings  they      would       drown    but they 
e|---------------------------------------------------------------------------|
B|---------0----------0-----------0------------0-----------------------------|
G|----1---------1-----------1-----------1------------------------------------|
D|---------------------------------------------------------------------------|
A|----2----------------------------------------------------------------------|
E|---------------------------------------------------------------------------|

    never   did  never   lived  ever    live   ebbing   and flowin  in-
e|---------------------------------------------------------------------------|
B|--------1-------1--------1--------1-------1-------1--------1------1--------|
G|---2-------2--------2--------2--------2-------2-------2-------2------------|
D|---------------------------------------------------------------------------|
A|---0-----------------------------------------------------------------------|
E|---------------------------------------------------------------------------|

    hibited limit    ed           till it
e|---------------------------------------------------------------------------|
B|-------1-------1-----------1----------1------------------------------------|
G|---------------------------------------------------------------------------|
D|---3------3---------3------------3-----------------------------------------|
A|---------------------------------------------------------------------------|
E|---1-----------------------------------------------------------------------|

     broke     down    and it    rained  down  like...
e|---------------------------------------------------------------------------|
B|---------0----------0-----------0------------0-----------------------------|
G|----1---------1-----------1-----------1------------------------------------|
D|---------------------------------------------------------------------------|
A|----2----------------------------------------------------------------------|
E|---------------------------------------------------------------------------|

[Chorus]
                  Am
                    PAIN          you make me   a you  make me  a  be-               
e|---------------------------------------------------------------------------|
B|--------1-------1--------1--------1-------1-------1--------1------1--------|
G|---2-------2--------2--------2--------2-------2-------2-------2------------|
D|---------------------------------------------------------------------------|
A|---0-----------------------------------------------------------------------|
E|---------------------------------------------------------------------------|
   
     F
    -leiver                        a   be-
e|---------------------------------------------------------------------------|
B|-------1-------1-----------1----------1------------------------------------|
G|---------------------------------------------------------------------------|
D|---3------3---------3------------3-----------------------------------------|
A|---------------------------------------------------------------------------|
E|---1-----------------------------------------------------------------------|

     E
    -Lei   v - er
e|---------------------------------------------------------------------------|
B|---------0----------0-----------0------------0-----------------------------|
G|----1---------1-----------1-----------1------------------------------------|
D|---------------------------------------------------------------------------| x2
A|----2----------------------------------------------------------------------|
E|---------------------------------------------------------------------------|
Suggest correction
Creating personal tab
Creating personal tab
You can edit any tab online and save it as your Personal.

You can edit, replace or remove any tab part or add personal notes – all changes will be seen only by you.

Personal tabs can be accessed anytime from any device, even offline.
Learn more »
Give kudos to tab author, rate the tab!
1 2 3 4 5
comments
print report bad tab
guest
You may want to rate the tab now too:
select rating
Wanna post a correction for this tab? Suggest correction