Oops, an error
Loading. Please wait.
We have an official Believer tab made by UG professional guitarists. Check out the tab »
×

Believer tab

version 4
version 4

Whole song

  • Tab for Believer, with Acoustic Riff and Electric Chords.
  • Moved picking so its easier and i added a bass note.
  • Fully structured tab with song timings, easy to follow.

Video

  • High quality video, on screen guitar tab, easy to follow.
2,785 views 312 this week
2 commentsread comments
1 2 3 4 5
x 5
add to favorites
×
Save as Personal and add changes to this tab that will be seen only by you. Learn more ›
×
You can save this tab as Personal to edit and correct it or add notes. All changes will be seen only by you. Learn more »
launch autoscroll
font size
0
reset
how to read this tab
guitar tuner
backing track
0:00
0:00
edit
Autoscroll
slow
fast
+/-
esc
set tempo
stop
About this tab version
Fully structured tab with song timings, easy to follow. Was this info helpful? Yes No
===========================================
VIDEO LESSON TO ACOMPANY THIS TAB:
https://www.youtube.com/watch?v=ycCIUi-RUyw
===========================================

-------------
CAPO @ FRET 1
==========================

CHORDS USED:

     Am      F       E

e|---0---|---1---|---0---|
B|---1---|---1---|---0---|
G|---2---|---2---|---1---|
D|---2---|---3---|---2---|
A|---0---|---3---|---2---|
E|-------|---1---|---0---|

==========================


[VERSE]
0.07 - 0.53
"First things first Imma say all the words..."
e|-----------------|-----------------|-----------------|-----------------|
B|---1---1---1---1-|---1---1---1---1-|---1---1---1---1-|---0---0---0---0-|
G|-2---2---2---2---|-2---2---2---2---|-----------------|-1---1---1---1---| x6
D|-----------------|-----------------|-3---3---3---3---|-----------------|
A|-----------------|-----------------|-----------------|-----------------|
E|-----------------|-----------------|-----------------|-----------------|
   .....................................................................


[CHORUS]
0.54 - 1.23
"Pain..."
e|-0--0--0-0--0--0-|-0--0--0-0--0--0-|-1--1--1-1--1--1-|-0--0--0-0--0--0-|
B|-1--1--1-1--1--1-|-1--1--1-1--1--1-|-1--1--1-1--1--1-|-0--0--0-0--0--0-|
G|-2--2--2-2--2--2-|-2--2--2-2--2--2-|-2--2--2-2--2--2-|-1--1--1-1--1--1-| x4
D|-2--2--2-2--2--2-|-2--2--2-2--2--2-|-3--3--3-3--3--3-|-2--2--2-2--2--2-|
A|-0--0--0-0--0--0-|-0--0--0-0--0--0-|-3--3--3-3--3--3-|-2--2--2-2--2--2-|
E|-----------------|-----------------|-1--1--1-1--1--1-|-0--0--0-0--0--0-|
   D  D  U D  D  U   D  D  U D  D  U   D  D  U D  D  U   D  D  U D  D  U 


[VERSE]
1.24 - 1.55
"Third things third..."
e|-----------------|-----------------|-----------------|-----------------|
B|---1---1---1---1-|---1---1---1---1-|---1---1---1---1-|---0---0---0---0-|
G|-2---2---2---2---|-2---2---2---2---|-----------------|-1---1---1---1---| x6
D|-----------------|-----------------|-3---3---3---3---|-----------------|
A|-----------------|-----------------|-----------------|-----------------|
E|-----------------|-----------------|-----------------|-----------------|
   .....................................................................


[CHORUS]
1.56 - 2.25
"Pain! You made me a beleiver..."
e|-0--0--0-0--0--0-|-0--0--0-0--0--0-|-1--1--1-1--1--1-|-0--0--0-0--0--0-|
B|-1--1--1-1--1--1-|-1--1--1-1--1--1-|-1--1--1-1--1--1-|-0--0--0-0--0--0-|
G|-2--2--2-2--2--2-|-2--2--2-2--2--2-|-2--2--2-2--2--2-|-1--1--1-1--1--1-| x4
D|-2--2--2-2--2--2-|-2--2--2-2--2--2-|-3--3--3-3--3--3-|-2--2--2-2--2--2-|
A|-0--0--0-0--0--0-|-0--0--0-0--0--0-|-3--3--3-3--3--3-|-2--2--2-2--2--2-|
E|-----------------|-----------------|-1--1--1-1--1--1-|-0--0--0-0--0--0-|
   D  D  U D  D  U   D  D  U D  D  U   D  D  U D  D  U   D  D  U D  D  U 


[VERSE]
2.26 - 2.50
"Last thing's last..."
e|-----------------|-----------------|-----------------|-----------------|
B|---1---1---1---1-|---1---1---1---1-|---1---1---1---1-|---0---0---0---0-|
G|-2---2---2---2---|-2---2---2---2---|-----------------|-1---1---1---1---| x3
D|-----------------|-----------------|-3---3---3---3---|-----------------|
A|-----------------|-----------------|-----------------|-----------------|
E|-----------------|-----------------|-----------------|-----------------|
   .....................................................................


[CHORUS]
2.51 - To End
"Pain! You made me a beleiver..."
e|-0--0--0-0--0--0-|-0--0--0-0--0--0-|-1--1--1-1--1--1-|-0--0--0-0--0--0-|
B|-1--1--1-1--1--1-|-1--1--1-1--1--1-|-1--1--1-1--1--1-|-0--0--0-0--0--0-|
G|-2--2--2-2--2--2-|-2--2--2-2--2--2-|-2--2--2-2--2--2-|-1--1--1-1--1--1-| x4
D|-2--2--2-2--2--2-|-2--2--2-2--2--2-|-3--3--3-3--3--3-|-2--2--2-2--2--2-|
A|-0--0--0-0--0--0-|-0--0--0-0--0--0-|-3--3--3-3--3--3-|-2--2--2-2--2--2-|
E|-----------------|-----------------|-1--1--1-1--1--1-|-0--0--0-0--0--0-|
   D  D  U D  D  U   D  D  U D  D  U   D  D  U D  D  U   D  D  U D  D  U 



************************************

| .   Palm Muted
| D   Up Strum
| U   Up Strum

************************************

            
            
Suggest correction
Creating personal tab
Creating personal tab
You can edit any tab online and save it as your Personal.

You can edit, replace or remove any tab part or add personal notes – all changes will be seen only by you.

Personal tabs can be accessed anytime from any device, even offline.
Learn more »
comments
print report bad tab
2 comments total.
0 reply
ryantrishahughes 20 Mar 30, 2017 05:34 PM

didn't like this contribution

0 reply
21-nscida1 10 May 22, 2017 08:15 PM

It's in the wrong key if you try to play it to the music, however, it would sound okay (if not exact) as a cover

guest
You may want to rate the tab now too:
select rating
Wanna post a correction for this tab? Suggest correction