Oops, an error
Loading. Please wait.

Cover Up tab

372 views 6 this week
no commentswrite comment
1 2 3 4 5
x 3
add to favorites
×
Save as Personal and add changes to this tab that will be seen only by you. Learn more ›
×
You can save this tab as Personal to edit and correct it or add notes. All changes will be seen only by you. Learn more »
launch autoscroll
font size
0
reset
how to read this tab
guitar tuner
edit
Autoscroll
slow
fast
+/-
esc
set tempo
stop
Author
Difficulty
-------------------------------------------------------------------------------
                             Cover up - Imagine Dragons
-------------------------------------------------------------------------------
Tabbed by:GarrettPaquette
This is the tab for the lead guitar part of Cover Up 

Tuning:standard

Lead Guitar at 0:37 (comes in around the end of the chorus too)
e|------------20-19----15--------------20-19---------------------------------|
B|---13-15-17-------17--------13-15-17-------17-15-17-15-17------------------|
G|---------------------------------------------------------------------------|
D|---------------------------------------------------------------------------|
A|---------------------------------------------------------------------------|
E|---------------------------------------------------------------------------|

e|------------20-19----15--------------20-19---------------------------------|
B|---13-15-17-------17--------13-15-17-------17-15-17-15-20------------------|
G|---------------------------------------------------------------------------|
D|---------------------------------------------------------------------------|
A|---------------------------------------------------------------------------|
E|---------------------------------------------------------------------------|



Starting at 1:09 and then after the chorus too
e|------------------------------------------------------------------------------|
B|------------------------------------------------------------------------------|
G|------------------------------------------------------------------------------|
D|------------------------------------------------------------------------------|
A|----3-3----5-5----------------------------------------------------------------|
E|------------------5-5---------------------------------------------------------|



Starting at 3:18
e|--10-10-------10-10-------10-10-------10-10--------12-12------12-12-------12-12-------12-12------|
B|--------12-12-------12-12-------12-12--------12-12-------10-10-------10-10-------10-10------10-10|
G|-------------------------------------------------------------------------------------------------|
D|-------------------------------------------------------------------------------------------------|
A|-------------------------------------------------------------------------------------------------|
E|-------------------------------------------------------------------------------------------------|
                                              X5


************************************

| /   slide up
| \   slide down
| h   hammer-on
| p   pull-off
| ~   vibrato
| +   harmonic
| x   Mute note
| b   Bend
| pb  Pre-bend
| br  Bend release
| pbr Pre-bend release
| brb Bend release bend

************************************
Suggest correction
Creating personal tab
Creating personal tab
You can edit any tab online and save it as your Personal.

You can edit, replace or remove any tab part or add personal notes – all changes will be seen only by you.

Personal tabs can be accessed anytime from any device, even offline.
Learn more »
Give kudos to tab author, rate the tab!
1 2 3 4 5
comments
print report bad tab
guest
You may want to rate the tab now too:
select rating
Wanna post a correction for this tab? Suggest correction