Oops, an error
Loading. Please wait.

Demons Bass Tab

version 1
version 1

Whole song

  • Because its complete, i tabed the whole song with ornaments.

Interactive

37,564 views 195 this week
1 commentread comment
1 2 3 4 5
excellent!
x 28
add to favorites
launch autoscroll
font size
0
reset
guitar tuner
Autoscroll
slow
fast
+/-
esc
set tempo
stop
Help us to improve Ultimate-Guitar.com Take our survey!
×
Difficulty
novice
G|----------------------------------------------------------------|
D|----------------------------------------------------------------|
A|-6-6-6-6-6-6-6-6------------------------------------------------|
E|----------------6-6-6-6-6-6-6-6-8-8-8-8-8-8-8-8-4-4-4-4-4-4-4-4-|

G|----------------------------------------------------------------|
D|----------------------------------------------------------------|
A|6-6-6-6-6-6-6-6-------------------------------------------------|
E|---------------6-6-6-6-6-6-6-6-8-8-8-8-8-8-8-8-4-4-4-4-4-4-4-4--|

Repeat through out whole song, each note is played for 4 beats, so  mix it up however
you'd like.
Suggest correction
comments
print report bad tab
1 comment total.
0 reply
MarcusP23 10 wrote on May 11 2014, 10:34 am

This is great! Thanks :)

guest
You may want to rate the tab now too:
select rating
Wanna post a correction for this tab? Suggest correction