Oops, an error
Loading. Please wait.

Demons Tab

version 5
version 5

Whole song

Video

25,080 views 66 this week
1 commentread comment
1 2 3 4 5
x 5
add to favorites
launch autoscroll
font size
0
reset
how to read this tab
guitar tuner
×
Best way to learn
"Demons"
Autoscroll
slow
fast
+/-
esc
set tempo
stop
Difficulty
novice
Standard Tuning

[Verse]
E|-------------------------------|------------------------------|
B|-------------------------------|------------------------------|  
G|-----2-------------2-----------|--4---------------0--0-0------| 
D|-00------4--2-00---2--4-2--0---|0-4---4--2-00-----0--0-0------|(x2)
A|-----000-----------000---------|--222-------------------------|
E|-------------------------------|------------------3-3--3--3---|

E|-------------------------------|------------------------------|
B|--------------------------2/3-3|------------------------------|
G|--2-2-2-2-2-----2---2-2-2------|-4-----------0-0000-----------|
D|-0--------0-4---2--------------|-4-444-4-4---0-0000--4-4------|
A|----------------0---------0----|-2-----2----------------------|
E|-------------------------------|-------------3----3-----------|

E|-------------------------------|------------------------------|
B|--------------------------2/3-3|------------------------------|
G|--2-2-2-2-2-----2---2-2-2------|-4-----------0-0000-----------|
D|----------0-4---2--------------|-4--4444-4---0-0000--4--------|
A|----------------0---------0----|-2--2222-2--------------------|
E|-------------------------------|-------------3----3-----------|

[Chorus] 
(start with D chord)
E|-2---2-2-3/5-----2-2-2-3/5---|---2-2-2-2-2-3---3-3-3-3---2---|
B|-3-----------3-2-----------2-|-------------3-----------------|
G|-2-------------2-------------|-4-----------0-----------------|
D|-0-------------2-------------|-4---------------------0-------|
A|---------------0-------------|-2-------2---2-----------------|
E|-----------------------------|-------------3-----------------|

E|-2---2-2-3/5-----2-2-2-3/5---|---2-2-2-2-2-3---3-3-3-3---2---|
B|-3-----------3-2-----------2-|-------------3-----------------|
G|-2-------------2-------------|-4-----------0-----------------|
D|-0-------------2-------------|-4---------------------0-------|
A|---------------0-------------|-2-------2---2-----------------|
E|-----------------------------|-------------3-----------------|

[Verse]
E|-------------------------------|------------------------------|
B|-------------------------------|------------------------------|  
G|-----2-------------2-----------|--4---------------0--0-0------| 
D|-00------4--2-00---2--4-2--0---|0-4---4--2-00-----0--0-0------|(x2)
A|-----000-----------000---------|--222-------------------------|
E|-------------------------------|------------------3-3--3--3---|

E|-------------------------------|------------------------------|
B|--------------------------2/3-3|------------------------------|
G|--2-2-2-2-2-----2---2-2-2------|-4-----------0-0000-----------|
D|-0--------0-4---2--------------|-4-444-4-4---0-0000--4-4------|
A|----------------0---------0----|-2-----2----------------------|
E|-------------------------------|-------------3----3-----------|

E|-------------------------------|------------------------------|
B|--------------------------2/3-3|------------------------------|
G|--2-2-2-2-2-----2---2-2-2------|-4-----------0-0000-----------|
D|----------0-4---2--------------|-4--4444-4---0-0000--4--------|
A|----------------0---------0----|-2--2222-2--------------------|
E|-------------------------------|-------------3----3-----------|

[Chorus] 
(start with D chord)
E|-2---2-2-3/5-----2-2-2-3/5---|---2-2-2-2-2-3---3-3-3-3---2---|
B|-3-----------3-2-----------2-|-------------3-----------------|
G|-2-------------2-------------|-4-----------0-----------------|
D|-0-------------2-------------|-4---------------------0-------|
A|---------------0-------------|-2-------2---2-----------------|
E|-----------------------------|-------------3-----------------|

E|-2---2-2-3/5-----2-2-2-3/5---|---2-2-2-2-2-3---3-3-3-3---2---|
B|-3-----------3-2-----------2-|-------------3-----------------|
G|-2-------------2-------------|-4-----------0-----------------|
D|-0-------------2-------------|-4---------------------0-------|
A|---------------0-------------|-2-------2---2-----------------|
E|-----------------------------|-------------3-----------------|

[Ending Riff]
E|-----------0-----------------|-------------------------------|
B|---3-3-3-3---2---2-2-2-2-3---|----------------0-0-0-0-2-3----| (Carry chord
G|-------------2---------------|--4-4-4-4-4--0------------2----| over to 
D|-0-------0---2---------------|--4--------4-0------------0----| beginning  
A|-------------0---------0-----|--2----------2-----------------| of next
E|-----------------------------|-------------3-----------------| part)

E|-----------0-----------------|---2-2-2-2-------3--3-3-3-2---2| (Carry D
B|---3-3-3-3---2---2-2-2-2-3---|----------3--0----------3-----3| chord over
G|-------------2---------------|--4----------0----------------2| to beginning
D|---------0---2---------------|--4------2---0----------------0| of chorus)
A|-------------0---------0-----|--2---------------------2------|
E|-----------------------------|-------------3----------3------|

(Alternative last 2 bars of that sequence)
E|-----------0-----------------|---2-2-2-2-------3--3-3-3-2---2| (Carry D
B|---3-3-3-3---2---2-2-2-2-3---|----------3--0----------3-----3| chord over
G|-------------2---------------|--4----------0----------------2| to beginning
D|---------0---2---------------|--4------0---0----------------0| of chorus)
A|-------------0---------0-----|--2---------------------2------|
E|-----------------------------|-------------3----------3------|

[Chorus]
(Remember, D chord is carried over from previous Section)
E|----2-2-3/5-----2-2-2-3/5----|---2-2-2-2-2-3---3-3-3-3---2---|
B|-----------3-2-----------2---|-------------3-----------------|
G|-------------2---------------|-4-----------0-----------------|
D|-------------2---------------|-4---------------------0-------|
A|-------------0---------------|-2-------2---2-----------------|
E|-----------------------------|-------------3-----------------|

E|-2---2-2-3/5-----2-2-2-3/5---|---2-2-2-2-2-3---3-3-3-3---2--2| (Before last
B|-3-----------3-2-----------2-|-------------3----------------3| D chord
G|-2-------------2-------------|-4-----------0----------------2| have a 
D|-0-------------2-------------|-4---------------------0------0| pause)
A|---------------0-------------|-2-------2---2-----------------|
E|-----------------------------|-------------3-----------------|


************************************

| /  Slide up

************************************
Suggest correction
comments
print report bad tab
1 comment total.
0 reply
Pelusteriano 3,836 Nov 18, 2014 08:06 PM

Lack of formatting. Not actually bad formatting, but I'm this option to get the chance to write what is wrong here. This version is the same as version 5, but just with some few adjustments (added lyrics and such, but the tab is still the same).

guest
You may want to rate the tab now too:
select rating
Wanna post a correction for this tab? Suggest correction