Oops, an error
Loading. Please wait.
We have an official Demons tab made by UG professional guitarists. Check out the tab »
×
10,312 views 51 this week
2 commentsread comments
1 2 3 4 5
x 21
add to favorites
launch autoscroll
font size
0
reset
how to read this tab
guitar tuner
Autoscroll
slow
fast
+/-
esc
set tempo
stop
Author
Difficulty
Capo
novice
3rd fret
[Verse 1]
E|---------------------------------------------|
B|---------------------------------------------|
G|--------------------------6------------------|
D|-----9-6--------9-6---------6-------7-7-7----|     (x2)
A|-7-7-----9-7--7-----9-7-7-----9-7-7----------|
E|---------------------------------------------|

E|--------------------------------------------------------|
B|--------------------------------------------------------|
G|-----------------------9-8-6----------------------------|
D|-9-9-9-9-6-9---9-9-9-9-------6-6-6-6-6-7----7-7-7-7-6-6-|
A|--------------------------------------------------------|
E|--------------------------------------------------------|

[Pre-Chorus]
E|-----------------------------------------------------|
B|-----------------------------------------------------|
G|-9-9-9-9-8---8-8-8-8-9-6-----------------------------|
D|--------------------------6-6-6-6-6-7----7-7-7-7-6-6-|
A|-----------------------------------------------------|
E|-----------------------------------------------------|

[Chorus]
E|-----7-----------7-------------------------------------|
B|-9-9---------9-9--------9-9-9-9-9-10--10-10-10-10-9-9--|
G|-------9-8---------8-6---------------------------------|
D|-------------------------------------------------------|  (x2)
A|-------------------------------------------------------|
E|-------------------------------------------------------|

[Bridge]
E|-------------------------------------------------------|
B|----------7--------------------------------------------|
G|-9-9-9-9----8--8-8-8-8-9-6---6-6-6-6------6-6-6-6-8-9--|
D|-------------------------------------6-7---------------|
A|-------------------------------------------------------|
E|-------------------------------------------------------|

E|---------------------------------------------------------|
B|----------7------------------9-9-9-9-7----10-10-10-10-9-9|
G|-9-9-9-9----8--8-8-8-8-9-6-------------9-----------------|
D|---------------------------------------------------------|
A|---------------------------------------------------------|
E|---------------------------------------------------------|

[Chorus]
E|-----7-----------7-------------------------------------|
B|-9-9---------9-9--------9-9-9-9-9-10--10-10-10-10-9-9--|
G|-------9-8---------8-6---------------------------------|
D|-------------------------------------------------------|  (x2)
A|-------------------------------------------------------|
E|-------------------------------------------------------|
Suggest correction
comments
print report bad tab
2 comments total.
+2 reply
muffin14 13 May 30, 2015 11:58 PM

Awesome tab, sounds real good to me! Keep on making tabs! :)
5 Stars!

0 reply
POMINOZ 10 Nov 20, 2016 12:49 AM

its in E flat

guest
You may want to rate the tab now too:
select rating
Wanna post a correction for this tab? Suggest correction