Oops, an error
Loading. Please wait.
We have an official Demons tab made by UG professional guitarists. Check out the tab »
×
532 views 12 this week
no commentswrite comment
1 2 3 4 5
1 last vote to show rating
add to favorites
×
Save as Personal and add changes to this tab that will be seen only by you. Learn more ›
×
You can save this tab as Personal to edit and correct it or add notes. All changes will be seen only by you. Learn more »
launch autoscroll
font size
0
reset
how to read this tab
guitar tuner
edit
Autoscroll
slow
fast
+/-
esc
set tempo
stop
About this tab version
Sounds like the origional song. Was this info helpful? Yes No
This is my re-creation of the song. I listened to it and managed to make this out of it.
Hope this will help you to play the song.

   D   A  Bm   G
e|-2-|-0-|-2-|-3-|
B|-3-|-2-|-3-|-3-|
G|-2-|-2-|-4-|-0-|
D|-0-|-2-|-4-|-0-|
A|-0-|-0-|-2-|-2-|
E|-x-|-x-|-x-|-3-|


[Verse]

D
When the days are cold
A
And the cards all fold
Bm
And the saints we see
G
Are all made of gold

D
When your dreams all fail
A
And the ones we hail
Bm
Are the worst of all
G
And the blood’s run stale


[Pre-chorus]

e|---------------------------------------------------------------------------|
B|-----------5---------------------------------------------------------------|
G|-----7---7---6------6---6-7-4------4---0---0------0---0--------------------| x2
D|---0---0----------0---0----------0---0---4------0---0---4-4----------------|
A|-5-----------------------------2-------------------------------------------|
E|----------------5-----------------------------3----------------------------|


[Chorus]

e|-----------5--------------5---------------2----2/3-3-----3---3/2-2-2-------|
B|-------7-----7--5----------------------------------------------------------|
G|-----7---7--------6---6-----6-6--4----4------4---------0---0---------------| x2
D|--------------------0---0-----------0---0----------------------------------|
A|---5-----------------------------2-----------------------------------------|
E|------------------5----------------------------------3---------------------|


[Verse]


[Pre-chorus]


[Chorus]


[Bridge]

e|---------------------------------------------------------------------------|
B|-----------5---------------------------------------------------------------|
G|-----7---7---6------6---6-7-4------4---0---0------0---0--------------------|
D|---0---0----------0---0----------0---0---4------0---0---4-4----------------|
A|-5-----------------------------2-------------------------------------------|
E|----------------5-----------------------------3----------------------------|

e|--------------------------------------------------3---3\2-2-2--------------|
B|-----------5---------------------------------------------------------------|
G|-----7---7---6------6---6-7-4------4---0---0----0---0----------------------|
D|---0---0----------0---0----------0---0---4---------------------------------|
A|-5-----------------------------2-------------------------------------------|
E|----------------5-----------------------------3----------------------------|


[Chorus]



************************************

| /   Slide up
| \   Slide down

************************************

            
            
Suggest correction
Creating personal tab
Creating personal tab
You can edit any tab online and save it as your Personal.

You can edit, replace or remove any tab part or add personal notes – all changes will be seen only by you.

Personal tabs can be accessed anytime from any device, even offline.
Learn more »
Give kudos to tab author, rate the tab!
1 2 3 4 5
comments
print report bad tab
guest
You may want to rate the tab now too:
select rating
Wanna post a correction for this tab? Suggest correction