Oops, an error
Loading. Please wait.

Destination Acoustic Tab

458 views 3 this week
2 commentsread comments
1 2 3 4 5
please rate
add to favorites
launch autoscroll
font size
0
reset
how to read this tab
guitar tuner
Tab Pro tools
  • play this tab
  • loop segment
  • change instrument
  • show fretboard
  • metronome
×
Best way to learn
"Destination Acoustic"
Autoscroll
slow
fast
+/-
esc
set tempo
stop
Contributor
Capo
1st fret
-------------------------------------------------------------------------------
                     DESTINATION ACOUSTIC - Imagine Dragons
-------------------------------------------------------------------------------
Tabbed by: Caelan Jewell 
E-mail: Exeletor1@gmail.com

Tuning:E#A#D#G#B#e# (capo 1)

e#|---------------------------------------------------------------------------|
C |-----3-0-3-5-30-3-0--------------------------------------------------------|
G#|---00-0-0-0-0--0-0---------------------------------------------------------|
D#|---------------------------------------------------------------------------|   X3
A#|---------------------------------------------------------------------------|
E#|---------------------------------------------------------------------------|

e#|---------------------------------------------------------------------------|
C |-----3-0-3-5-30-7-0--------------------------------------------------------|
G#|---00-0-0-0-0--0-0---------------------------------------------------------|
D#|---------------------------------------------------------------------------|
A#|---------------------------------------------------------------------------|
E#|---------------------------------------------------------------------------|

Bridge Notes


e#|---------------------------------------------------------------------------|
C |-------------------------------3--3-3--------------------------------------|
G#|----------------5--5-5--0--0-0---------------------------------------------|
D#|--------2--2-2-------------------------------------------------------------|    x4
A#|---------------------------------------------------------------------------|
E#|---------------------------------------------------------------------------|

**UPDATE**

*added bridge notes. they are the correct notes, but im not sure if they are in 
the same position on the neck as they are in the song. nevertheless, if you're
collaborating with someone playing these notes will work.
*changed the B# to a C. B#s do not exists. should have caught that earlier.
*changed versus to verses in the paragraph below. Dodged a grammar nazi bullet!

This pattern is repeated throughout some of the verses, you will have to listen 
yourself for which parts. By the way, this is NOT how to play the song with an 
acoustic guitar, this is how to play the ACOUSTIC VERSION: 
https://www.youtube.com/watch?v=ksP3Tn7R7mU&list=WL&index=11
My first tab, please rate and share!
comments
We did not receive enough feedback on this tab! Please rate:
print report bad tab
1 2 3 4 5
2 comments total.
0 reply
mumfordandguns wrote on September 1 2014, 11:49 am, edited at 11:50 am

e#|---------------------------------------------------------------------------|
B#|--------3---0--3---5-3-0-3---------------------------------------------------------|
G#|---00---0---0--0----------------------------------------------------------------|
D#|---------------------------------------------------------------------------|
A#|---------------------------------------------------------------------------|
E#|---------------------------------------------------------------------------|

+1 reply
mumfordandguns wrote on September 1 2014, 11:52 am

glitched out ^
e#|---------------------------------------------------------------------------|
B#|---- -3--0--3---5-3-0-3----------------------------------------------------|
G#|---00--0---0--0------------------------------------------------------------|
D#|---------------------------------------------------------------------------|
A#|---------------------------------------------------------------------------|
E#|---------------------------------------------------------------------------|

I want to post or [tab]
guest
You may want to rate the tab now too:
select rating
Please do not post tabs as comments. Select "correction" instead!