Oops, an error
Loading. Please wait.

Emma Tab

2,567 views 1 this week
no commentswrite comment
1 2 3 4 5
1 last vote to show rating
add to favorites
launch autoscroll
font size
0
reset
how to read this tab
guitar tuner
Autoscroll
slow
fast
+/-
esc
set tempo
stop
Help us to improve Ultimate-Guitar.com Take our survey!
×
Author
Difficulty
intermediate
INTRO

Electric 1
(palm mute with delay)
E|--------------------|
B|------------9-------|
G|----10---10---10----|
D|-88----8---------88-|
A|--------------------|
E|--------------------|

Synth/Electric 3

E|---------------------------|
B|---------------------------|
G|---------------------------|
D|-8/16/18\15\11--8/16/18\15-|
A|---------------------------|
E|---------------------------|

Electric 2
          (strum these notes)
E|-----|       |-----|
B|-----|       |--6--|
G|--8--|       |--8--|
D|--8--|       |--8--|
A|--6--|       |-----|
E|-----|       |-----|

VERSE

INTRO

VERSE

PRE-CHORUS

Electric 1

E|-9-------9--------------------|
B|---11------11----9------9-----|
G|------11------11----11-----11-|
D|------------------------------|
A|------------------------------|
E|------------------------------|

CHORUS

Synth/Electric 3

E|---------------------------|
B|---------------------------|
G|---------------------------|
D|-8/16/18\15\11--8/16/18\15-|
A|---------------------------|
E|---------------------------|

Electric 2
          (strum these notes)
E|-----|       |-----|
B|-----|       |--6--|
G|--8--|       |--8--|
D|--8--|       |--8--|
A|--6--|       |-----|
E|-----|       |-----|

VERSE

PRE-CHORUS

CHORUS

SOLO

Electric 1

E|--------------------------------------------------|
B|-16b-1616-14--------------------------------------|
G|-------------1515-1515151515-13-11-13-11-13-15-11-|
D|--------------------------------------------------|
A|--------------------------------------------------|
E|--------------------------------------------------|

 ------------------------------------------------|
 ------------------------------------------------|
 ------15-13b-------11-10-------13--------15-13b-|
 ----11-------11-13-------13/15-------11---------|
 --14------------------------------14------------|
 ------------------------------------------------|

 -----------------------------------|
 --14-16----------------------------|
 --------15-13-11----11----11/15-13-|
 -----------------13----13----------|
 -----------------------------------|
 -----------------------------------|

POST
(no music in the beginning)

THEN...

Electric 2
(listen to song for strum pattern)
E|-------------------|
B|-------------------|
G|-11-8-11-8-4-6-4-6-|
D|-11-8-11-8-4-6-4-6-|
A|-9--6-9--6-2-4-2-4-|
E|-------------------|

INTRO

THEN ADD THE PRE-CHORUS

THEN ADD...

Electric 1

E|------------------------11/13\11-|
B|-16b-1616-14------11-14----------|
G|-------------1515----------------|
D|---------------------------------|
A|---------------------------------|
E|---------------------------------|
Suggest correction
Give kudos to tab author, rate the tab!
1 2 3 4 5
comments
print report bad tab
guest
You may want to rate the tab now too:
select rating
Wanna post a correction for this tab? Suggest correction