Oops, an error
Loading. Please wait.

Every Night Tab

version 1
version 1

Solo

Whole song

998 views 3 this week
no commentswrite comment
1 2 3 4 5
excellent!
x 2
add to favorites
launch autoscroll
font size
0
reset
how to read this tab
guitar tuner
Tab Pro tools
  • play this tab
  • loop segment
  • change instrument
  • show fretboard
  • metronome
Autoscroll
slow
fast
+/-
esc
set tempo
stop
Contributor
Difficulty
intermediate
e------------------------------------------------------------------------------------|
B---13--13-------10--10----8--8---------------------------8--------------------------|
G---------------------------------------------9--9---10-------10---------------------|
D------------------------------------------------------------------------------------|
A------------------------------------------------------------------------------------|
E------------------------------------------------------------------------------------|
    (x2)

e --------------------------------------------------------------13--12--|
B--10--10----15b17b15----8--8---13b15b13----13--12--12--10--10----------|
G-------------------------------------------------------------12--------|
D-----------------------------------------------------------------------|
A-----------------------------------------------------------------------|
E-----------------------------------------------------------------------|


e ---10--10--10----8--8--8-----8--5---------------------------------------------------|
B-------------------------------------------------------------------------------------|
G-----------------------------------------5--5--5-----7--7--7----9--9--9-------9--12--|
D-------------------------------------------------------------------------------------|
A-------------------------------------------------------------------------------------|
E-------------------------------------------------------------------------------------|
comments
We did not receive enough feedback on this tab! Please rate:
print report bad tab
1 2 3 4 5
I want to post or [tab]
guest
You may want to rate the tab now too:
select rating
Please do not post tabs as comments. Select "correction" instead!