Oops, an error
Loading. Please wait.

Every Night Tab

version 2
version 2

Whole song

330 views 1 this week
no commentswrite comment
1 2 3 4 5
1 last vote to show rating
add to favorites
launch autoscroll
font size
0
reset
how to read this tab
guitar tuner
Autoscroll
slow
fast
+/-
esc
set tempo
stop
Help us to improve Ultimate-Guitar.com Take our survey!
×
Author
Difficulty
intermediate
This is my first tab ever, so if you can leave some comments that would be great!!!


e---------------------------------------------------------|
B---13--13--13----10--10--10---8--8--8-----------8--------|
G--------------------------------------9--9--10----7--5---|
D---------------------------------------------------------|
A---------------------------------------------------------|
E---------------------------------------------------------|

e----------------------------------------------------------|
B---13--13--13----10--10--10----8--8--8----------8---------|
G---------------------------------------9--9--10----7--9---|
D----------------------------------------------------------|
A----------------------------------------------------------|
E----------------------------------------------------------|

e------------------------------------------------------------------|
B---10--10---15b17b15----8--8---13b15b13---13--12--12--10--10--8---|
G------------------------------------------------------------------|
D------------------------------------------------------------------|
A------------------------------------------------------------------|
E------------------------------------------------------------------|

e---13--12--12----10--10----8--8---8--5--5--------------------------------|
B-------------------------------------------------------------------------|
G-------------------------------------------5--5b7--7--7b9--9--9b12--12---|
D-------------------------------------------------------------------------|
A-------------------------------------------------------------------------|
E-------------------------------------------------------------------------|
Suggest correction
Give kudos to tab author, rate the tab!
1 2 3 4 5
comments
print report bad tab
guest
You may want to rate the tab now too:
select rating
Wanna post a correction for this tab? Suggest correction