Oops, an error
Loading. Please wait.

Every Night Tab

version 1
version 1

Whole song

1,050 views 3 this week
no commentswrite comment
1 2 3 4 5
excellent!
x 4
add to favorites
launch autoscroll
font size
0
reset
how to read this tab
guitar tuner
Tab Pro tools
  • play this tab
  • loop segment
  • change instrument
  • show fretboard
  • metronome
×
Best way to learn
"Every Night"
Autoscroll
slow
fast
+/-
esc
set tempo
stop
Contributor
Difficulty
intermediate
VERSE

Electric 2

E|-------------|
B|-------------|
G|-10----------|
D|-10--5--2--3-|
A|-8---5--2--3-|
E|-----3--0--1-|

CHORUS

Electric 1

E|-15----15---- --1717-15-19-20-20-20-20-|
B|----15----15- -------------------------|
G|------------- -------------------------|
D|------------- -------------------------|
A|------------- -------------------------|
E|------------- -------------------------|

Electric 2

E|-------------|
B|-------------|
G|-10----------|
D|-10--5--2--3-|
A|-8---5--2--3-|
E|-----3--0--1-|

POST

Electric 1

E|---------------------------|
B|---------------------------|
G|-1717-1414-----------------|
D|-----------1717-1212-14/17-|
A|---------------------------|
E|---------------------------|

VERSE

Electric 2

E|-------------|
B|-------------|
G|-10----------|
D|-10--5--2--3-|
A|-8---5--2--3-|
E|-----3--0--1-|

THEN ADD...

Electric 1

E|---------------------------------------|
B|-13r12h13r12h13r----13r12h13r12h13r-10-|
G|-----------------12--------------------|
D|---------------------------------------|
A|---------------------------------------|
E|---------------------------------------|

CHORUS

BRIDGE

E|-------------|
B|-------------|
G|-14-16-14-12-|
D|-------------|
A|-------------|
E|-------------|

SOLO

E|------------------------------------------------------------|
B|---13--13-------10--10----8----8-------------8--------------|
G|---------------------------------9--9---10-------10---------|
D|------------------------------------------------------------| x2
A|------------------------------------------------------------|
E|------------------------------------------------------------|
    

E|---------------------------------------------------------------13--12--|
B|--10--10----15b17b15----8--8---13b15b13----13--12--12--10--10----------|
G|-------------------------------------------------------------12--------|
D|-----------------------------------------------------------------------|
A|-----------------------------------------------------------------------|
E|-----------------------------------------------------------------------|


E|---10--10--10----8--8--8-----8--5-----------------------------------------|
B|--------------------------------------------------------------------------|
G|----------------------------------5--5--5-----7--7--7----9--9--9---9--12--|
D|----------------------------------x--x--x-----x--x--x----x--x--x---x--x---|
A|----------------------------------3--3--3-----5--5--5----7--7--7---7--10--|
E|--------------------------------------------------------------------------|


CHORUS
comments
print report bad tab
I want to post or [tab]
guest
You may want to rate the tab now too:
select rating
Please do not post tabs as comments. Select "correction" instead!