Oops, an error
Loading. Please wait.

Hear Me Bass Tab

3,426 views 1 this week
2 commentsread comments
1 2 3 4 5
x 9
add to favorites
launch autoscroll
font size
0
reset
guitar tuner
Autoscroll
slow
fast
+/-
esc
set tempo
stop
Help us to improve Ultimate-Guitar.com Take our survey!
×
Author
Difficulty
novice
----------------------------
 Hear me by Imagine Dragons
----------------------------


Intro x2
G|---------------------------------------------------------------------------|
D|---------------------------------------------------------------------------|
A|---------------------------------------------------7-6---7-6---7-----------|
E|-0-0-0-0-0-0-0-0-0-0-0-0-2-2-2-2-4-4-4-4-4-4-4-4-4-----4-----4-------------|

Verse x2
G|---------------------------------------------------------------------------|
D|---------------------------------------------------------------------------|
A|---------------------------------------------------------------------------|
E|-0-0-0-0-0-0-0-0-0-0-0-0-2-2-2-2-4-4-4-4-4-4-4-4-4-4-4-4-4-4-4-4-----------|

Verse part 2 x2
G|---------------------------------------------------------------------------|
D|---------------------------------------------------------------------------|
A|---------------------------------------------------7-6---7-6---7-----------|
E|-0-0-0-0-0-0-0-0-0-0-0-0-2-2-2-2-4-4-4-4-4-4-4-4-4-----4-----4-------------|

Pre-Chorus
G|---------------------------------------------------------------------------|
D|---------------------------------------------------------------------------|
A|---------------------------------------------------7-6---7-6---7-----------|
E|-0-0-0-0-0-0-0-0-0-0-0-0-2-2-2-2-4-4-4-4-4-4-4-4-4-----4-----4-------------|

G|---------------------------------------------------------------------------|
D|---------------------------------------------------------------------------|
A|-------------------------------------------------/11-11-11-11-11-11-11-11--|
E|-0-0-0-0-0-0-0-0-0-0-0-0-2-2-2-2-4-4-4-4-4-4-4-4---------------------------|

Chorus
G|---------------------------------------------------------------------------|
D|---------------------------------------------------------------------------|
A|-2-2-2-2-2-2-2-2-4-4-4-4-4-4-4-4-------------------7-6---7-6---7-----------|
E|---------------------------------4-4-4-4-4-4-4-4-4-----4-----4-------------|

G|---------------------------------------------------------------------------|
D|---------------------------------------------------------------------------|
A|-2-2-2-2-2-2-2-2-4-4-4-4-4-4-4-4-------------------------------------------|
E|---------------------------------0-0-0-0-0-0-0-0-0-0-0-0-0-0-0-0-----------|

Intro x2
G|---------------------------------------------------------------------------|
D|---------------------------------------------------------------------------|
A|---------------------------------------------------7-6---7-6---7-----------|
E|-0-0-0-0-0-0-0-0-0-0-0-0-2-2-2-2-4-4-4-4-4-4-4-4-4-----4-----4-------------|

Verse x2
G|---------------------------------------------------------------------------|
D|---------------------------------------------------------------------------|
A|---------------------------------------------------------------------------|
E|-0-0-0-0-0-0-0-0-0-0-0-0-2-2-2-2-4-4-4-4-4-4-4-4-4-4-4-4-4-4-4-4-----------|

Verse part 2 x2
G|---------------------------------------------------------------------------|
D|---------------------------------------------------------------------------|
A|---------------------------------------------------7-6---7-6---7-----------|
E|-0-0-0-0-0-0-0-0-0-0-0-0-2-2-2-2-4-4-4-4-4-4-4-4-4-----4-----4-------------|

Pre-Chorus
G|---------------------------------------------------------------------------|
D|---------------------------------------------------------------------------|
A|---------------------------------------------------7-6---7-6---7-----------|
E|-0-0-0-0-0-0-0-0-0-0-0-0-2-2-2-2-4-4-4-4-4-4-4-4-4-----4-----4-------------|

G|---------------------------------------------------------------------------|
D|---------------------------------------------------------------------------|
A|-------------------------------------------------/11-11-11-11-11-11-11-11--|
E|-0-0-0-0-0-0-0-0-0-0-0-0-2-2-2-2-4-4-4-4-4-4-4-4---------------------------|

Chorus
G|---------------------------------------------------------------------------|
D|---------------------------------------------------------------------------|
A|-2-2-2-2-2-2-2-2-4-4-4-4-4-4-4-4-------------------7-6---7-6---7-----------|
E|---------------------------------4-4-4-4-4-4-4-4-4-----4-----4-------------|

G|---------------------------------------------------------------------------|
D|---------------------------------------------------------------------------|
A|-2-2-2-2-2-2-2-2-4-4-4-4-4-4-4-4-------------------------------------------|
E|---------------------------------0-0-0-0-0-0-0-0-0-0-0-0-0-0-0-0-----------|

Bridge x2
G|---------------------------------------------------------------------------|
D|---------------------------------------------------------------------------|
A|---------------------------------------------------------------------------|
E|-0-0-0-0-0-0-0-0-0-0-0-0-2-2-2-2-0-0-0-0-0-0-0-0-0-0-0-0-2-2-2-2-----------|

Bridge part 2
G|---------------------------------------------------------------------------|
D|---------------------------------------------------------------------------|
A|---------------------------------------------------------------------------|
E|-0-0-0-0-0-0-0-0-0-0-0-0-2-2-2-2-0-0-0-0-0-0-0-0---------------------------|

Final Chorus
G|---------------------------------------------------------------------------|
D|---------------------------------------------------------------------------|
A|-2-2-2-2-2-2-2-2-4-4-4-4-4-4-4-4-------------------7-6---7-6---7-----------|
E|---------------------------------4-4-4-4-4-4-4-4-4-----4-----4-------------|

G|---------------------------------------------------------------------------|
D|---------------------------------------------------------------------------|
A|-2-2-2-2-2-2-2-2-4-4-4-4-4-4-4-4-------------------------------------------|
E|---------------------------------0-0-0-0-0-0-0-0-0-0-0-0-0-0-0-0-----------|

G|---------------------------------------------------------------------------|
D|---------------------------------------------------------------------------|
A|-2-2-2-2-2-2-2-2-4-4-4-4-4-4-4-4-------------------------------------------|
E|---------------------------------0-0-0-0-0-0-0-0-0-0-0-0-2-2-2-2-----------|

G|---------------------------------------------------------------------------|
D|---------------------------------------------------------------------------|
A|-0-0-0-0-0-0-0-0-2-2-2-2-2-2-2-2-------------------------------------------|
E|---------------------------------0-0-0-0-0-0-0-0-0-0-0-0-0-0-0-0-4~--------|
Suggest correction
comments
print report bad tab
2 comments total.
0 reply
ynnodnortep 110 Apr 13, 2014 07:45 PM

PERFECT!!!!!!!!!!!!!!!!!!!!!!!!!!!!!!!!!!!!

0 reply
luca95200 400 May 29, 2014 05:20 PM

The final part is:
A|-----------------2-2-2-2-2-2-2-2----------------------------------------|
E|-4-4-4-4-4-4-4-4-----------------0-0-0-0-0-0-0-0-0-0-0-0-0-0-0-0-4~-----|

guest
You may want to rate the tab now too:
select rating
Wanna post a correction for this tab? Suggest correction