Oops, an error
Loading. Please wait.

Hopeless Opus solo tab

version 1
version 1

Solo

Interactive

3,614 views 21 this week
2 commentsread comments
1 2 3 4 5
x 6
add to favorites
×
Save as Personal and add changes to this tab that will be seen only by you. Learn more ›
×
You can save this tab as Personal to edit and correct it or add notes. All changes will be seen only by you. Learn more »
launch autoscroll
font size
0
reset
how to read this tab
guitar tuner
edit
Autoscroll
slow
fast
+/-
esc
set tempo
stop
Author
Difficulty
First Solo

e|---------------------------8-----------------------------------------------|
B|-13b16-16-16-9-8--11b13r11---11--9-8--11--9--8--9--8-----------------------|
G|----------------------------------------------10----10-8-7------7-8---8----|
D|------------------------------------------------------------8-10-----8-6-5-|
A|---------------------------------------------------------------------------|
E|---------------------------------------------------------------------------|

e|-----------------------13b15-13-11-8--13b15-13-11-8------8--13-11-10-8-|
B|-------------------8s13--------------------------------11--------------|
G|---------------8-10----------------------------------------------------|
D|-----------8-10--------------------------------------------------------|
A|-------8-10------------------------------------------------------------|
E|-6-8-11----------------------------------------------------------------|

e|-13s18-16-15----------------------------------------------------------------|
B|------------18-16-15--------------------------------------------------------|
G|--------------------17-15---------------------------------------------------|
D|-------------------------18-17-15-------------------------------------------|
A|---------------------------------18-17-15--------------15-17-18----18-------|
E|-----------------------------------------18-16-15-16-18----------18---16-15-|

Second Solo

e|-------------8-11-13b15r13-11-8---11b13r11-8-13b15-|
B|---------8-11--------------------------------------|   then there are a bunch of notes that I can't
G|-----8-10------------------------------------------|   hear correctly, but it must be some random notes
D|-8-10----------------------------------------------|   of the pentatonic scale used (C minor)or just random
A|---------------------------------------------------|   notes
E|---------------------------------------------------|   

e|-------------------------------------------------------------------------------------------------|
B|-----------------------------------11p8------------------11p8------------------------------------|
G|-10b12-10b12-10b12-10b12-10b12-10b12----10b12-10b12-10b12----10b12-10b12-10b12-10b12-10b12-10b12-|
D|-------------------------------------------------------------------------------------------------|
A|-------------------------------------------------------------------------------------------------|
E|-------------------------------------------------------------------------------------------------|

e|-------------------------------------------------------------------------------------------------|
B|------------------13p9-----------------------------------13p9------------------------------------|
G|-11b13-11b13-11b13----11b13-11b13-11b13-11b13-11b13-11b13----11b13-11b13-11b13-11b13-11b13-11b13-|
D|-------------------------------------------------------------------------------------------------|
A|-------------------------------------------------------------------------------------------------|
E|-------------------------------------------------------------------------------------------------|

e|-------------------------------------------------------------------------11-13-13b15-13-11-14b16-|
B|-----------------15p11----------------------------------15p11------------------------------------|
G|-13b15-13b15-13b15----13b15-13b15-13b15-13b15-13b15-13b15----13b15-13b15-------------------------|
D|-------------------------------------------------------------------------------------------------|
A|-------------------------------------------------------------------------------------------------|
E|-------------------------------------------------------------------------------------------------|

            
            
Suggest correction
Creating personal tab
Creating personal tab
You can edit any tab online and save it as your Personal.

You can edit, replace or remove any tab part or add personal notes – all changes will be seen only by you.

Personal tabs can be accessed anytime from any device, even offline.
Learn more »
comments
print report bad tab
2 comments total.
-1 reply
guitartle715 10 May 30, 2015 07:39 PM, edited at 11:45 pm

4 stars because notes rent spread out enough to the other strings (too much sliding up and down the neck) instead of going to the eigth fret on the 1st string try going to 11th fret on the 2nd string

+1 reply
lockion 326 May 31, 2015 07:41 PM

Thank you for your comment guitartle! I know you can play it differently, but I learnt it that way and thus is easier for me to play it like the tab says. I hope that this tab is, at least, a good guide for you to learn the solo your way!

guest
You may want to rate the tab now too:
select rating
Wanna post a correction for this tab? Suggest correction