Oops, an error
Loading. Please wait.

I Dont Mind Tab

665 views 1 this week
4 commentsread comments
1 2 3 4 5
excellent!
x 3
add to favorites
launch autoscroll
font size
0
reset
how to read this tab
guitar tuner
Tab Pro tools
  • play this tab
  • loop segment
  • change instrument
  • show fretboard
  • metronome
×
Best way to learn
"I Dont Mind"
Autoscroll
slow
fast
+/-
esc
set tempo
stop
Contributor
Difficulty
intermediate
INTRO

Electric 1

E|----------------|
B|-12-14-10-12----|
G|-------------14-|
D|----------------|
A|----------------|
E|----------------|

INTRO (P2)

Electric 3

E|-------------12-     -----------12----------|
B|-------13-15----     --------15----15-13----|
G|-12-14----------     --12-14-------------12-|
D|---------------- x3  -----------------------|
A|----------------     -----------------------|
E|----------------     -----------------------|

Electric 2

E|----------|
B|----------|
G|----5-----|
D|-7--5--3--|
A|-7--3--3--|
E|-5-----1--|

VERSE

Electric 2
(random picking)
E|----------|
B|----------|
G|----5-----|
D|-7--5--3--|
A|-7--3--3--|
E|-5-----1--|

Electric 1

E|----------------|
B|-12-14-10-12----|
G|-------------14-|
D|----------------|
A|----------------|
E|----------------|

CHORUS

Electric 1
(trill)
E|-------------------------|
B|-13-15-17-15-13-10-12-13-|
G|-------------------------|
D|-------------------------|
A|-------------------------|
E|-------------------------|

Electric 3

E|-------------12-     -----------12----------|
B|-------13-15----     --------15----15-13----|
G|-12-14----------     --12-14-------------12-|
D|---------------- x3  -----------------------|
A|----------------     -----------------------|
E|----------------     -----------------------|

Electric 2

E|----------|
B|----------|
G|----5-----|
D|-7--5--3--|
A|-7--3--3--|
E|-5-----1--|

SOLO/BRIDGE

Electric 1

E|-151515-121212----------------------------|
B|---------------151515-131313--------------|
G|-----------------------------129129129129-|
D|------------------------------------------|
A|------------------------------------------|
E|------------------------------------------|

CHORUS
comments
We did not receive enough feedback on this tab! Please rate:
print report bad tab
1 2 3 4 5
4 comments total. Showing first comments.
0 reply
Mockingjay58 wrote on August 7 2014, 08:03 pm

Can you post chords please?

0 reply
BLUE3UN wrote on August 8 2014, 12:17 pm

The chords are there, look at electric 2

0 reply
jsdgpro wrote on October 4 2014, 02:47 am

The first intro,
E|----------------|
B|-12-14-10-12----|
G|-------------14-|
D|----------------|
A|----------------|
E|----------------|

The notes on B should be on G, the 14 on G should be on D.
It's a great tab otherwise :)

I want to post or [tab]
guest
You may want to rate the tab now too:
select rating
Please do not post tabs as comments. Select "correction" instead!