Oops, an error
Loading. Please wait.

I Need A Minute Bass Tab

46 views 3 this week
no commentswrite comment
1 2 3 4 5
3 more votes to show rating
add to favorites
launch autoscroll
font size
0
reset
guitar tuner
Autoscroll
slow
fast
+/-
esc
set tempo
stop
Help us to improve Ultimate-Guitar.com Take our survey!
×
Author
Difficulty
Tabbed by: Asa Wentworth
Email: stroodleman8451@yahoo.com

Song: I Need a Minute
Artist: Imagine Dragons
Album: Imagine Dragons - EP
Tuning: Standard


[Verse]

0:14
"Welcome to the land of hire..."
g|-------------------------------------------------| 
d|--5(x16)-----------------------------------------|
a|----------5(x16)--7(x16)--3(x16)-----------------| 
e|-------------------------------------------------|(x2)


[Pre-Chorus]

0:40
"...see me look..."
g|-------------------------------------------------| 
d|--5(x16)-----------------------------------------|
a|----------5(x16)--7(x16)--3(x8)-/-15(x8)---------|
e|-------------------------------------------------|


[Chorus]

0:53
"I need a minute..."
g|------------------------------------------------------------------|
d|---5--5--5--5-----------------------------------------------------|
a|---------------5--5--5--5--7--7--7--7--2--2--2-1-0----------------|
e|---------------------------------------------------2--------------|(x2)

1:06
g|-------------------------------------------------| 
d|--5(x16)-----------------------------------------|
a|----------5(x16)--7(x16)--3(x16)-----------------|
e|-------------------------------------------------|


[Verse]

1:20
"Welcome to the land of fail..."
g|-------------------------------------------------| 
d|--5(x16)-----------------------------------------|
a|----------5(x16)--7(x16)--3(x16)-----------------|
e|-------------------------------------------------|(x2)


1:46
"...see me look..."
g|-------------------------------------------------| 
d|--5(x16)-----------------------------------------|
a|----------5(x16)--7(x16)--3(x8)-/-15(x8)---------|
e|-------------------------------------------------|


[Chorus]

2:00
"I need a minute..."
g|------------------------------------------------------------------|
d|---5--5--5--5-----------------------------------------------------|
a|---------------5--5--5--5--7--7--7--7--2--2--2-1-0----------------| 
e|---------------------------------------------------2--------------|(x2)


[Bridge]

2:26
g|------------------------------------------------------| 
d|------------------------------------------------------|
a|--0(x15)-2-3--5(x16)----------3(x14)-2-2--------------|
e|----------------------3(x16)--------------------------|

g|------------------------------------------------------| 
d|------------------------------------------------------|
a|--0(x15)-2-3--5(x16)----------3(x8)-/-15(x8)----------|
e|----------------------3(x16)--------------------------|


[Final Chorus]

2:52
"I need a minute..."
g|------------------------------------------------------------------|
d|---5--5--5--5-----------------------------------------------------|
a|---------------5--5--5--5--7--7--7--7--2--2--2-1-0----------------|
e|---------------------------------------------------2--------------|(x4)

Rate & comment!

************************************

| /  Slide up 

************************************
Suggest correction
Give kudos to tab author, rate the tab!
1 2 3 4 5
comments
print report bad tab
guest
You may want to rate the tab now too:
select rating
Wanna post a correction for this tab? Suggest correction