Oops, an error
Loading. Please wait.

Im So Sorry tab

version 5
version 5

Whole song

Interactive

1,375 views 12 this week
1 commentread comment
1 2 3 4 5
x 4
add to favorites
×
Save as Personal and add changes to this tab that will be seen only by you. Learn more ›
×
You can save this tab as Personal to edit and correct it or add notes. All changes will be seen only by you. Learn more »
launch autoscroll
font size
0
reset
how to read this tab
guitar tuner
edit
Autoscroll
slow
fast
+/-
esc
set tempo
stop
About this tab version
This version is based off the studio version of the song. Wayne Sermon, Imagine Dragons' guitarist, tunes his guitar to DGCFAD (the tuning used in this version) when he plays it live. Was this info helpful? Yes No
-------------------------------------------------------------------------------
                             I'M SO SORRY - Imagine Dragons
-------------------------------------------------------------------------------
Tabbed by: marc240


Tuning: DGCFAd


INTRO (from 0:00 to 0:18)


d|-----------------------------|
A|--19b21---17--17---------17--| X11
F|------------------19b21------|
C|-----------------------------|
G|-----------------------------|
D|-----------------------------|


INTRO (MAIN RIFF) (from 0:20 to 0:33)


d|-----------------------------------------------------------------------------------------|
A|-----------------------------------------------------------------------------------------|
F|------7/9--9-7-----9--9-7--------7/9--9-7-----9--9-7--------7/9--9-7-----9--9-7----------|
C|---------------9----------9---------------9----------9---------------9----------9--------|
G|-----------------------------------------------------------------------------------------|
D|--0--------------------------0--------------------------0--------------------------------|

d|--------------------------------|
A|--------------------------------|
F|------7/9--9-7-----9--9-7-9/11--|
C|---------------9----------------|
G|--------------------------------|
D|--0-----------------------------|


VERSE 1 (from 0:33 to 0:58)


First guitar part (can be heard during the whole verse)

d|------------------------------------------------------|     --------------------------|
A|------------------------------------------------------|     --------------------------|
F|------------------------------------------12/14--12~--| X3  --------------------------|
C|--14---14---12-------------14---14-12-14--------------|     --14---14---12------------|
G|---------------14--12-10------------------------------|     ---------------14--12-10--|
D|------------------------------------------------------|     --------------------------|


Second guitar part (from 0:47 to 0:57)

d|---------12--12-12---------12--12-12---------12--12-12--------10--10-10---------12--12-12--|
A|--10/12-------------10/12-------------10/12-------------8/10-------------10/12-------------|
F|-------------------------------------------------------------------------------------------|
C|-------------------------------------------------------------------------------------------|
G|-------------------------------------------------------------------------------------------|
D|-------------------------------------------------------------------------------------------|

d|---------12--12-12---------12--12-12---------15--15-15--------12--12-12---------12--12-12--|
A|--10/12-------------10/12-------------13/15-------------10/12-------------10/12------------|
F|-------------------------------------------------------------------------------------------|
C|-------------------------------------------------------------------------------------------|
G|-------------------------------------------------------------------------------------------|
D|-------------------------------------------------------------------------------------------|

d|---------12--12-12--------10--10-10--|
A|--10/12-------------8/10-------------|
F|-------------------------------------|
C|-------------------------------------|
G|-------------------------------------|
D|-------------------------------------|



CHORUS 1 (from 0:59 to 1:27)


d|-----------------------------------------------------------------------------------------|
A|-----------------------------------------------------------------------------------------|
F|------7/9--9-7-----9--9-7--------7/9--9-7-----9--9-7--------7/9--9-7-----9--9-7----------|
C|---------------9----------9---------------9----------9---------------9----------9--------|
G|-----------------------------------------------------------------------------------------|
D|--0--------------------------0--------------------------0--------------------------------|

d|-----------------------------------------------------------------------------------------|
A|-----------------------------------------------------------------------------------------|
F|------7/9--9-7------rest--------7/9--9-7-----9--9-7---------7/9--9-7------9--9-7-9/11----|
C|---------------9-------------------------9-----------9---------------9-------------------|
G|-----------------------------------------------------------------------------------------|
D|--0-------------------------0---------------------------0--------------------------------|

d|---------------------------------------------|
A|---------------------------------------------|
F|------7/9--9-7-----9--9-7--------7/9--9-7----|
C|---------------9----------9---------------9--|
G|---------------------------------------------|
D|--0--------------------------0---------------|



VERSE 2 (exactly the same as VERSE 1) (from 1:27 to 1:52)



CHORUS 2 (from 1:53 to 2:21)

d|-----------------------------------------------------------------------------------------|
A|-----------------------------------------------------------------------------------------|
F|------7/9--9-7-----9--9-7--------7/9--9-7-----9--9-7--------7/9--9-7-----9--9-7----------|
C|---------------9----------9---------------9----------9---------------9----------9--------|
G|-----------------------------------------------------------------------------------------|
D|--0--------------------------0--------------------------0--------------------------------|

d|-----------------------------------------------------------------------------------------|
A|-----------------------------------------------------------------------------------------|
F|------7/9--9-7------rest--------7/9--9-7-----9--9-7---------7/9--9-7------9--9-7-9/11----|
C|---------------9-------------------------9-----------9---------------9-------------------|
G|-----------------------------------------------------------------------------------------|
D|--0-------------------------0---------------------------0--------------------------------|

d|----------------------------------------------------12---------------|
A|----------------------------------------------15b16----16br15--------|
F|------7/9--9-7-----9--9-7--------7/9--9-7---------------------14b16--|
C|---------------9----------9---------------9--------------------------|
G|---------------------------------------------------------------------|
D|--0--------------------------0---------------------------------------|



BRIDGE (NO GUITAR) (from 2:21 to 2:56)



CHORUS 3 (from 2:56 to 3:36)

d|-----------------------------------------------------------------------------------------|
A|-----------------------------------------------------------------------------------------|
F|------7/9--9-7-----9--9-7--------7/9--9-7-----9--9-7--------7/9--9-7-----9--9-7----------|
C|---------------9----------9---------------9----------9---------------9----------9--------|
G|-----------------------------------------------------------------------------------------|
D|--0--------------------------0--------------------------0--------------------------------|

d|-----------------------------------------------------------------------------------------|
A|-----------------------------------------------------------------------------------------|
F|------7/9--9-7------rest--------7/9--9-7-----9--9-7---------7/9--9-7------9--9-7-9/11----|
C|---------------9-------------------------9-----------9---------------9-------------------|
G|-----------------------------------------------------------------------------------------|
D|--0-------------------------0---------------------------0--------------------------------|

d|----------------------------------------------------12---------------|
A|----------------------------------------------15b16----16br15--------|
F|------7/9--9-7-----9--9-7--------7/9--9-7---------------------14b16--|
C|---------------9----------9---------------9--------------------------|
G|---------------------------------------------------------------------|
D|--0--------------------------0---------------------------------------|

d|-----------------------------------------------------------------------------------------|
A|-----------------------------------------------------------------------------------------|
F|------7/9--9-7-----9--9-7--------7/9--9-7-----9--9-7-----rest---9-7-----9--9-7-----------|
C|---------------9----------9---------------9----------9--------------9----------9---------|
G|-----------------------------------------------------------------------------------------|
D|--0--------------------------0-----------------------------------------------------------|

d|------------------|
A|------------------|
F|------7/9--9-7----|
C|---------------9--|
G|------------------|
D|--0---------------|



OUTRO (from 3:36 to 3:45)

d|---------------------------------------------------------------------|
A|---------------------------------------------------------------------|
F|---------------------------------------------------------------------| 
C|---------------------------------------------------------------------|
G|--5h7-7-7-5-------------5h7-7-7-5p0-6h8-8-8-6p0-5h7-7-7-5------------|
D|------------7-7-5-3-0-------------------------------------7-7-5-3-0--|

d|-----------------------------------------------|
A|-----------------------------------------------|
F|-----------------------------------------------|
C|-----------------------------------------------|
G|--5h7-7-7-5p0-6h8-8-8-6p0-5h7-7-7-5------------|
D|------------------------------------7-7-5-3-0--|


************************************

| /   slide up
| \   slide down
| h   hammer-on
| p   pull-off
| ~   vibrato
| +   harmonic
| x   Mute note
| b   Bend
| pb  Pre-bend
| br  Bend release
| pbr Pre-bend release
| brb Bend release bend

************************************
Suggest correction
Creating personal tab
Creating personal tab
You can edit any tab online and save it as your Personal.

You can edit, replace or remove any tab part or add personal notes – all changes will be seen only by you.

Personal tabs can be accessed anytime from any device, even offline.
Learn more »
comments
print report bad tab
1 comment total.
0 reply
miguevidali 10 Dec 11, 2016 11:14 PM

Saw your video, spot on! If you could tab the intro I would be eternally grateful!

guest
You may want to rate the tab now too:
select rating
Wanna post a correction for this tab? Suggest correction