Oops, an error
Loading. Please wait.

Its Time Tab

version 3
version 3

Intro

Whole song

Interactive

1,422 views 3 this week
no commentswrite comment
1 2 3 4 5
accurate
x 4
add to favorites
launch autoscroll
font size
0
reset
how to read this tab
guitar tuner
Autoscroll
slow
fast
+/-
esc
set tempo
stop
Help us to improve Ultimate-Guitar.com Take our survey!
×
Author
Intro:                                   
e|---12--14-12---14-12---14-12-|---12--14-12---14-12---14-12-|
B|-15---------15------15-------|-15---------15------15-------|
G|-----------------------------|-----------------------------|
D|-----------------------------|-----------------------------|
A|-----------------------------|-----------------------------|
E|-----------------------------|-----------------------------|

If playing on acoustic and its hard to use those higher frets
this alternative sounds just as good
                      

e|--0---2-0---2-0----2-0-----|--0---2-0---2-0----2-0-----|
B|-3-------3------3----------|-3-------3------3----------|
G|---------------------------|---------------------------|
D|---------------------------|---------------------------|
A|---------------------------|---------------------------|
E|---------------------------|---------------------------|
Suggest correction
comments
print report bad tab
guest
You may want to rate the tab now too:
select rating
Please do not post tabs as comments. Select "correction" instead!