Oops, an error
Loading. Please wait.

Its Time Tab

version 1
version 1

Whole song

Interactive

Video

9,278 views 210 this week
no commentswrite comment
1 2 3 4 5
accurate
x 4
add to favorites
launch autoscroll
font size
0
reset
how to read this tab
guitar tuner
Autoscroll
slow
fast
+/-
esc
set tempo
stop
Help us to improve Ultimate-Guitar.com Take our survey!
×
Difficulty
novice
It's Time
by:Imagine Dragons

[intro]

e|---0-2-0---2-0---2-0---x3---0-2-0--2-0---5--------------------------------|
B|-3-------3-----3----------3-------3----3----------------------------------|
G|--------------------------------------------------------------------------|
D|--------------------------------------------------------------------------|
A|--------------------------------------------------------------------------|
E|--------------------------------------------------------------------------|


[verse] (play twice)

e|---0-2-0---2-0---2-0---x6---0-2-0--2-0---5--------------------------------|
B|-3-------3-----3----------3-------3----3----------------------------------|
G|--------------------------------------------------------------------------|
D|--------------------------------------------------------------------------|
A|--------------------------------------------------------------------------|
E|--------------------------------------------------------------------------|

[chorus] (just vocals)


[intro]

e|---0-2-0---2-0---2-0---x3---0-2-0--2-0---5--------------------------------|
B|-3-------3-----3----------3-------3----3----------------------------------|
G|--------------------------------------------------------------------------|
D|--------------------------------------------------------------------------|
A|--------------------------------------------------------------------------|
E|--------------------------------------------------------------------------|
comments
print report bad tab
I want to post or [tab]
guest
You may want to rate the tab now too:
select rating
Please do not post tabs as comments. Select "correction" instead!