Oops, an error
Loading. Please wait.

Its Time Tab

version 3
version 3

Whole song

Interactive

Video

8,877 views 1 this week
no commentswrite comment
1 2 3 4 5
x 9
add to favorites
launch autoscroll
font size
0
reset
how to read this tab
guitar tuner
Autoscroll
slow
fast
+/-
esc
set tempo
stop
Help us to improve Ultimate-Guitar.com Take our survey!
×
Difficulty
intermediate
This is the mandolin part, this is the exact way the guitarists plays it in 
concert. It's played on the intro and the verses


e|-------------------------|
B|----5--7--5---7-5---7-5--|
G|-7----------7-----7------| Play 3 times
D|-------------------------|
A|-------------------------|
E|-------------------------|

Fourth time play this

e|--------------------5--|
B|----5--7--5---7-5------|
G|-7----------7-----7----|
D|-----------------------|
A|-----------------------|
E|-----------------------|

There ya go
Suggest correction
comments
print report bad tab
guest
You may want to rate the tab now too:
select rating
Wanna post a correction for this tab? Suggest correction