Oops, an error
Loading. Please wait.

Its Time Tab

version 4
version 4

Whole song

Interactive

Video

3,590 views 66 this week
1 commentread comment
1 2 3 4 5
excellent!
x 6
add to favorites
launch autoscroll
font size
0
reset
how to read this tab
guitar tuner
Autoscroll
slow
fast
+/-
esc
set tempo
stop
Help us to improve Ultimate-Guitar.com Take our survey!
×
Author
Difficulty
novice
-----------------------------------------------------------------------------
			          IT'S TIME - Imagine Dragons
-----------------------------------------------------------------------------

Tuning: Standard

Intro:
                                 

e|------14-------14------14--------|
B|-15-17----17p15---17p15----17----| (x3)
G|---------------------------------|
D|---------------------------------|
A|---------------------------------|
E|---------------------------------|


e|------14-------14------17--------|
B|-15-17----17p15---17p15----17----|
G|---------------------------------|
D|---------------------------------|
A|---------------------------------|
E|---------------------------------|

[Verse 1]

Dsus2
So this is what you meant, when you said that you were spent?

Asus4                                                              Bm11
And now it's time to build from the bottom of the pit right to the top,
               
Don't hold back,
 G                                              
Packing my bags and giving the academy a rain check

Dsus2                                 Asus4
I don't ever want to let you down
                                         Bm11
I don't ever want to leave this town
             G
'Cause after all,

This city never sleeps at night...

[Chorus 1]

Dsus2  
It's time to begin, isn't it?  
                    Bm11  
I get a little bit, bigger but then,   
                                   Em7
I'll admit, I'm just the same as I was
                         G 
Now don't you understand,
                         
That I'm never changing who I am 

[Verse 2]

Dsus2
So this is where you fell, and I am left to sell
Asus4
the path that heaven runs through miles of clouded hell, 
             Bm11
right to the top,

Don't look back,
G
Turning to rags and giving the commodities a rain check


Dsus2
I don't ever want to let you down
Asus4                                  Bm11
I don't ever want to leave this town
                G
'Cause after all,

This city never sleeps at night

[Chorus 2]

Dsus2  
It's time to begin, isn't it?  
                    Bm11  
I get a little bit, bigger but then,   
                                   Em7
I'll admit, I'm just the same as I was
                         G 
Now don't you understand,
                         
That I'm never changing who I am  (x2)

[Bridge]

Bm11                          Asus4
This road never looked so lonely,
                              G
This house doesn't burn down slowly,
Em7            G
to ashes, to ashes...

[Chorus 3]
Dsus2  
It's time to begin, isn't it?  
                    Bm11  
I get a little bit, bigger but then,   
                                   Em7
I'll admit, I'm just the same as I was
                         G 
Now don't you understand,
                         
That I'm never changing who I am   (x2)


Chord shapes:
     Dsus2    Asus4     Bm11      G       Em7
e|----0---------0--------0--------3--------0-----------|
B|----3---------3--------3--------3--------3-----------|
G|----2---------2--------2--------0--------0-----------|
D|----0---------2--------0--------0--------2-----------|
A|----x---------0--------2--------2--------2-----------|
E|----x---------x--------x--------3--------0-----------|

Strumming: DDD DUD DUD D (during verse)
           DUDU UDU UDU DUDU (during chorus)
           DDDD (simple down strums during bridge)

************************************
| h   hammer-on
| p   pull-off
************************************
Suggest correction
comments
print report bad tab
1 comment total.
0 reply
cherubim7 15 wrote on March 14 2016, 10:28 am

Awesome one! Love it

guest
You may want to rate the tab now too:
select rating
Wanna post a correction for this tab? Suggest correction