Oops, an error
Loading. Please wait.

Leave Me Tab

version 1
version 1

Whole song

1,367 views 3 this week
no commentswrite comment
1 2 3 4 5
2 more votes to show rating
add to favorites
launch autoscroll
font size
0
reset
how to read this tab
guitar tuner
Autoscroll
slow
fast
+/-
esc
set tempo
stop
Help us to improve Ultimate-Guitar.com Take our survey!
×
Author
Difficulty
intermediate
INTRO

Electric 1

E|--------------------- -----------------------|
B|--------------------- -----------------------|
G|-11/1313131313131313- -4/66666666-6/44444444-|
D|-x--x-x-x-x-x-x-x-x-- -x-xxxxxxxx-x-xxxxxxxx-|
A|-9-/1111111111111111- -2/44444444-4/22222222-|
E|--------------------- -----------------------|

VERSE

Electric 1

E|--------------------- -----------------------|
B|--------------------- -----------------------|
G|-11/1313131313131313- -4/66666666-6/44444444-|
D|-x--x-x-x-x-x-x-x-x-- -x-xxxxxxxx-x-xxxxxxxx-|
A|-9-/1111111111111111- -2/44444444-4/22222222-|
E|--------------------- -----------------------|

Synth

E|-16-14----16-14-19-|
B|-------12----------|
G|-------------------|
D|-------------------|
A|-------------------|
E|-------------------|

PRE-CHORUS

Electric 1

E|-12-9----|
B|------12-|
G|---------|
D|---------|
A|---------|
E|---------|

Electric 2

E|-----|
B|-----|
G|-----|
D|-7-9-|  (799 single strum only)
A|-7-9-|
E|-5-7-|

CHORUS

Electric 1

E|-------------    --------------    ----------------------|
B|-------------    --------------    ----------------------|
G|-13-16-13-11-    --18-16-13-11-    --11/13-6-13/16\13/16-|
D|-x--x--x--x-- X2 --x--x--x--x-- X2 --x-----x-x--x--x--x--|
A|-11-14-11-9--    --16-14-11-9--    --9/-11-4-11/14\11/14-|
E|-------------    --------------    ----------------------|

Electric 2

E|---------|
B|---------|
G|-9-------|
D|-9-7-4-7-|
A|-7-7-4-7-|
E|---5-2-5-|

INTRO

VERSE

BRIDGE (X2)

Electric 1
  (each one is picked)
E|------ ------ ------|
B|------ -12--- -7----|
G|-13--- ------ ----4-|
D|----9- ----9- ------|
A|------ ------ ------|
E|------ ------ ------|

Synth

E|-------------------------|
B|-17-16-14----------------|
G|----------16-13-16-13----|
D|----------------------16-|
A|-------------------------|
E|-------------------------|

Electric 2

E|-------------|
B|-------------|
G|-------9-----|
D|-4--7--9--9--|
A|-4--7--7--9--|
E|-2--5-----7--|

Synth 2
 (played during the second time of the bridge)
E|-17-16-14-16-12-|
B|----------------|
G|----------------|
D|----------------|
A|----------------|
E|----------------|

CHORUS
Suggest correction
Give kudos to tab author, rate the tab!
1 2 3 4 5
comments
print report bad tab
guest
You may want to rate the tab now too:
select rating
Wanna post a correction for this tab? Suggest correction