Oops, an error
Loading. Please wait.

Look How Far Weve Come Tab

1,889 views 12 this week
no commentswrite comment
1 2 3 4 5
please rate
add to favorites
launch autoscroll
font size
0
reset
how to read this tab
guitar tuner
Autoscroll
slow
fast
+/-
esc
set tempo
stop
Help us to improve Ultimate-Guitar.com Take our survey!
×
Author
Difficulty
intermediate
INTRO (part 1)

Synth
 (hold)
E|-14-|
B|----|
G|----|
D|----|
A|----|
E|----|

Electric 1
  (repeatedly)
E|--------18-|
B|-14--14----|
G|-----------|
D|-----------|
A|-----------|
E|-----------|

Electric 2

E|-------------|
B|-------------|
G|-16-15-16-11-|
D|-x--x--x--x--|
A|-14-11-14-9--|
E|-------------|

INTRO (part 2)

Electric 1
  (picked)              (pattern)
E|-------------|        |--------|
B|-11-12-9--12-|        |-x--x---|
G|-11-11-11-11-|        |---x--x-|
D|-------------|  --->  |--------|
A|-------------|        |--------|
E|-------------|        |--------|

Electric 2

E|-------11----------11--------------11-14-11-------------|
B|-11-14----14-11-14---14-11-9h11-14----------14-11-14-11-|
G|--------------------------------------------------------|
D|--------------------------------------------------------| x2
A|--------------------------------------------------------|
E|--------------------------------------------------------|

Synth

E|--------------------|
B|---16---------------|
G|-15--15-18-15-13-11-|
D|--------------------|
A|--------------------| x2
E|--------------------|

VERSE

(play intro part 2)

CHORUS

Electric 1

E|------------------------------------------------------------|
B|--------------141414---------------------------------141414-|
G|-151315131513--------151315131513-11----151315131513--------|
D|-------------------------------------13---------------------|
A|------------------------------------------------------------|
E|------------------------------------------------------------|

 ------------------------|
 -----------161616-14----|
 --15131513-----------15-|
 ------------------------|
 ------------------------|
 ------------------------|

Synth

E|------------------------|
B|-------16--161616-14----|
G|-15-18---------------15-|
D|------------------------|
A|------------------------|
E|------------------------|

Electric 2
 (both riffs played randomly,
 listen to the song)
E|--------  --------|
B|--------  --------|
G|-----11-  ------8-|
D|-4-6-11-  --4-6-8-|
A|-4-6-9--  --4-6-6-|
E|-2-4----  --2-4---|

PRE-CHORUS

(play intro 2)

VERSE

CHORUS x2

BRIDGE

Synth

E|-------------------------------|
B|-------14-------------14-------|
G|-13-15----15-13-13-15----13-15-|
D|-------------------------------|
A|-------------------------------|
E|-------------------------------|

Electric 1

E|---------------------|
B|---------------------|
G|-11-10-8-------------|
D|---------11--13-11-8-|
A|---------------------|
E|---------------------|

CHORUS

SYNTH OUTRO

Synth 1

E|-------------------------------------------|
B|-------11-14-11-11-16-14-11-------11-------|
G|-11-13----------------------11-13----------|
D|-------------------------------------13-11-| x2
A|-------------------------------------------|
E|-------------------------------------------|

Synth 2

E|-------------------------------------------|
B|-------------------------------16-19-16----|
G|-------15-18-15-------------15----------18-|
D|-16-18----------18-16-16-18----------------|
A|-------------------------------------------|
E|-------------------------------------------|
Suggest correction
What's this?
You can suggest a correction to this tab. Community and Mods will review your correction and vote to approve or reject it.
comments
We did not receive enough feedback on this tab! Please rate:
print report bad tab
1 2 3 4 5
guest
You may want to rate the tab now too:
select rating
Please do not post tabs as comments. Select "correction" instead!