Oops, an error
Loading. Please wait.

Monster Tab

5,480 views 21 this week
no commentswrite comment
1 2 3 4 5
excellent!
x 6
add to favorites
launch autoscroll
font size
0
reset
how to read this tab
guitar tuner
Autoscroll
slow
fast
+/-
esc
set tempo
stop
Help us to improve Ultimate-Guitar.com Take our survey!
×
Author
Difficulty
novice
-------------------------------------------------------------------------------
                             Monster - Imagine Dragons
-------------------------------------------------------------------------------

Tuning: Standard

e|----8-8\4-4~------------------6-6\3-3~-----------------------------|
B|----9-9\6-6~------------------6-6\4-4~-----------------------------|
G|-------------------------------------------------------------------|
D|-------------------------------------------------------------------| 4x
A|-------------------------------------------------------------------|
E|-------------------------------------------------------------------|

After the above plays 2 times, this starts to play:

e|----13-15-16-18-16----------/15-15-15-15-15------------------------|
B|-------------------13-13-13-----------------16-16-16---------------|
G|-------------------------------------------------------------------|
D|-------------------------------------------------------------------| 4x
A|-------------------------------------------------------------------|
E|-------------------------------------------------------------------|

Very easy intro. Great song. Enjoy!
Also, be sure to let me know if you think anything is off.

************************************

| /   slide up
| \   slide down
| h   hammer-on
| p   pull-off
| ~   vibrato
| +   harmonic
| x   Mute note
| b   Bend
| pb  Pre-bend
| br  Bend release
| pbr Pre-bend release
| brb Bend release bend

************************************
Suggest correction
comments
print report bad tab
guest
You may want to rate the tab now too:
select rating
Wanna post a correction for this tab? Suggest correction